PrimaNota.ru - самый крупный в мире бесплатный архив песенных текстов, аккордов, табулатур и нот


Stickup Kid - Breathing - таба, видео

Регистрация Запомнить меня
Войти через:  Facebook Google Twitter Vk Yandex Mail.ru

Stickup Kid - Breathing - таба, видео

Печатать
Просмотров: 75
Artist: Stickup Kid (http://www.facebook.com/stickupkidca)
Album: Nothing About Me [EP]
Track: Breathing
Tuning: Standard (EADGBe)
NB – 3/4 timing

Intro
  E5
E|---------2--------------|------------------------|
B|---------------5---4h5p4|----4-------------------|
G|-----4------------------|-4-----4--1-------------|
D|-2----------------------|------------------------|
A|------------------------|------------------------|
E|------------------------|------------------------|

  E5                        E5
E|---------2--------------|------------------------|
B|---------------5---4h5p4|----4-------------------|
G|-----4------------------|-4-----4--1-------------|
D|-2----------------------|------------------------|
A|------------------------|------------------------|
E|------------------------|------------------------|

Verse 1
E|------------------------|------------------------|
B|------------------------|------------------------|
G|-6-----6--6--6---9-9-9-9|------------------------|
D|-6-666-6--6--6---9-9-9-9|-7-7-7-7-7-7-7-7-7-7-7-7|
A|-4-444-4--4--4---7-7-7-7|-7-7-7-7-7-7-7-7-7-7-7-7|
E|------------------------|-5-5-5-5-5-5-5-5-5-5-5-5|
PM   ...
E|------------------------|------------------------|
B|------------------------|------------------------|
G|-6-6-6-6-6-6-------4-4-4|------------------------|
D|-6-6-6-6-6-6-4-4-4-4-4-4|-7-7-7-7-7-7-7-7-7-7-7-7|
A|-4-4-4-4-4-4-4-4-4-2-2-2|-7-7-7-7-7-7-7-7-7-7-7-7|
E|-------------2-2-2------|-5-5-5-5-5-5-5-5-5-5-5-5|

E|------------------------|------------------------|
B|------------------------|------------------------|
G|-6-6-6-6-6-6-9-9-9-4-4-4|------------------------|
D|-6-6-6-6-6-6-9-9-9-4-4-4|-7-7-7-7-7-7-7-7-7-7-7-7|
A|-4-4-4-4-4-4-7-7-7-2-2-2|-7-7-7-7-7-7-7-7-7-7-7-7|
E|------------------------|-5-5-5-5-5-5-5-5-5-5-5-5|

E|------------------------|------------------------|
B|------------------------|------------------------|
G|-6-6-6-------------4-4-4|------------------------|
D|-6-6-6-4-4-4-6-6-6-4-4-4|-7-7-7-7-7-7-7-7-7-7-7-7|
A|-4-4-4-4-4-4-6-6-6-2-2-2|-7-7-7-7-7-7-7-7-7-7-7-7|
E|-------2-2-2-4-4-4------|-5-5-5-5-5-5-5-5-5-5-5-5|

Bridge
E|------------------------|------------------------|
B|------------------------|------------------------|
G|------------------------|------------------------|
D|-2-----2-----2-----2----|------------------------|
A|-2-----2-----2-----2----|------------------------|
E|-0-----0-----0-----0----|------------------------|

E|------------------------|------------------------|
B|------------------------|------------------------|
G|------------------------|------------------------|
D|------------------------|------------------------|
A|------------------------|------------------------|
E|------------------------|------------------------|

E|------------------------|------------------------|
B|------------------------|------------------------|
G|------------------------|------------------------|
D|-7-----7-----7-----7----|------------------------|
A|-7-----7-----7-----7----|------------------------|
E|-5-----5-----5-----5----|------------------------|

E|------------------------|------------------------|
B|------------------------|------------------------|
G|------------------------|------------------------| All
D|------------------------|------------------------|  x2
A|------------------------|------------------------|
E|------------------------|------------------------|

Verse 2
E|------------------------|------------------------|
B|------------------------|------------------------|
G|------------------------|------------------------|
D|-----2---2-------2---2--|-----2---2-------2---2--|
A|-----2---2-------2---2--|-----2---2-------2---2--|
E|-0-0-0---0---0-0-0---0--|-0-0-0---0---0-0-0---0--|
   . .         . .          . .         . .
E|------------------------|------------------------|
B|------------------------|------------------------|
G|------------------------|------------------------|
D|-----7---7-------7---7--|-----7---7-------7---7--|
A|-----7---7-------7---7--|-----7---7-------7---7--|
E|-5-5-5---5---5-5-5---5--|-5-5-5---5---5-5-5---5--|
   . .         . .          . .         . .
E|------------------------|------------------------|
B|------------------------|------------------------|
G|------------------------|------------------------|
D|-----2---2-------2---2--|-----2---2-------2---2--|
A|-----2---2-------2---2--|-----2---2-------2---2--|
E|-0-0-0---0---0-0-0---0--|-0-0-0---0---0-0-0---0--|
   . .         . .          . .         . .
E|------------------------|------------------------|
B|------------------------|------------------------|
G|------------------------|------------------------|
D|-----7---7-------7---7--|-----7---7-------7---7--|
A|-----7---7-------7---7--|-----7---7-------7---7--|
E|-5-5-5---5---5-5-5---5--|-5-5-5---5---5-5-5---5--|
   . .         . .          . .         . .
E|------------------------|------------------------|
B|------------------------|------------------------|
G|------------------------|------------------------|
D|-----4-------4-------6--|---6---6-----7-------7--|
A|-----4-------4-------6--|---6---6-----7-------7--|
E|-2-2-2-2-2-2-2-2-4-4-4-4|-4-4-4-4-5-5-5-5-5-5-5-5|
   . .   . . .   . . .   .  .   .   . .   . . .   .
E|------------------------|------------------------|
B|------------------------|------------------------|
G|------------------------|------------------------|
D|-----7-----7---7-----4--|----4-------6-----6---6-|
A|-----7-----7---7-----4--|----4-------6-----6---6-|
E|-5-5-5-5-5-5-5-5-2-2-2-2|2-2-2-2-4-4-4-4-4-4-4-4-|
   . .   . .   .   . .   . . .   . . .   . .   .
E|------------------------|-----------------------|
B|------------------------|-----------------------|
G|------------------------|-----------------------|
D|-7-----------7----------|-7---------------------|
A|-7-----------7----------|-7---------------------|
E|-5-----------5----------|-5---------------------|
                            .
Добавлено: 30.09.2013
Другие материалы по этой песне:
  • Аккорды и текст

Страница создана 23.08.2013
http://primanota.ru/stickup-kid/breathing-chords.htm
Привет, Гость.
Предлагаем пройти революционный курс по гитаре.
Подарок от PrimaNota.Ru, забирай!