PrimaNota.ru - самый крупный в мире бесплатный архив песенных текстов, аккордов, табулатур и нот


Stick Figure - Youth - бас-таба, видео

Регистрация Запомнить меня
Войти через:  Facebook Google Twitter Vk Yandex Mail.ru

Stick Figure - Youth - бас-таба, видео

Печатать
Просмотров: 47
Уроки эстрадного вокала в Санкт-Петербурге
This song is a cover of the song Youth Are Getting Restless by Bad Brains

[Intro] x12

This entire riff can be muted

G|----------------------------------| 
D|----------------------------------|  
A|---------1-1-1-1------------------|
E|-3-3-3-3---------3-3-3------------|


[Main Line]

G|----------------------------------|
D|----------------------------------|
A|---------1-1-1-1--5-5--3-3--------|
E|-3-3-3-3--------------------------|

(OR it can be played with this note muted to give it the Bad Brains feel, see below)

G|----------------------------------|
D|----------------------------------|
A|---------1-1-1-1--X-5--3-3--------|
E|-3-3-3-3--------------------------|


[At 1:40 it goes back to the intro] x4

G|----------------------------------| 
D|----------------------------------|  
A|---------1-1-1-1------------------|
E|-3-3-3-3---------3-3-3------------|


[Back to the main line at 1:51]

G|----------------------------------|
D|----------------------------------|
A|---------1-1-1-1--5-5--3-3--------|
E|-3-3-3-3--------------------------|


[At 2:22 the bass line changes to this]

G|----------------------------------|
D|----------------------------------|
A|-----------3-3-1------------------|
E|-3--3--1-1------------------------|



[At 3:12 the bass line changes again]

G|---------------------------------|
D|---------5--------5---5----------|
A|------/5---5---/3---3---3--------|
E|--3-3--------1-------------------|

G|---------------------------------|
D|---------5-------3-3-3-3---------|
A|------/5---5---3-----------------|
E|--3-3--------1-------------------|



Добавлено: 22.08.2017
Другие материалы по этой песне:
  • Аккорды и текст

Страница создана 22.08.2017
http://primanota.ru/stick-figure/youth-chords.htm
Привет, Гость.
Предлагаем пройти революционный курс по гитаре.
Подарок от PrimaNota.Ru, забирай!