PrimaNota.ru - самый крупный в мире бесплатный архив песенных текстов, аккордов, табулатур и нот


Stick Figure - Songs Of Yesterday - бас-таба, видео

Регистрация Запомнить меня
Войти через:  Facebook Google Twitter Vk Yandex Mail.ru

Stick Figure - Songs Of Yesterday - бас-таба, видео

Печатать
Просмотров: 38
Уроки эстрадного вокала в Санкт-Петербурге
This song is on Stick Figure's Burning Ocean album.

[Main Line]


G|----------------------------|-----------------------------|
D|----------------3--5--5--5--|---------------3--5-5-5--5---|
A|--3--3--3--3--3-------------|-3--3--3--3--3---------------|
E|----------------------------|-----------------------------|


[Chorus]


G|--------------|--------------|
D|----------3-5-|-5-5-5-3------|
A|-3--3-3-3-----|---------3----|
E|--------------|--------------|


The guitar chords used in this song are C and G, two chucks each for the entire song.

       C      C      G      G
E|-----3------3------3------3-----|
B|-----5------5------3------3-----|
G|-----5------5------4------4-----|
D|-----5------5------5------5-----|
A|-----3------3------5------5-----|
E|-----3------3------3------3-----|
Добавлено: 22.08.2017
Другие материалы по этой песне:
  • Аккорды и текст

Страница создана 22.08.2017
http://primanota.ru/stick-figure/songs-of-yesterday-chords.htm
Привет, Гость.
Предлагаем пройти революционный курс по гитаре.
Подарок от PrimaNota.Ru, забирай!