PrimaNota.ru - самый крупный в мире бесплатный архив песенных текстов, аккордов, табулатур и нот


Stick Figure - Mind Block - бас-таба, видео

Регистрация Запомнить меня
Войти через:  Facebook Google Twitter Vk Yandex Mail.ru

Stick Figure - Mind Block - бас-таба, видео

Печатать
Просмотров: 137
Уроки эстрадного вокала в Санкт-Петербурге
-------------------------------------------------------------------------------
              Mind Block (feat. Eric Rachmany) - Stick Figure
-------------------------------------------------------------------------------
Tabbed by: wattmalter 
 

Tuning: Standard


Main Bassline:

G|--------------------|
D|-------3------------|
A|--5--5---5-3--------|
E|-------------5-5-5--|

Bass Fill:

G|-------|
D|-------|
A|--5-5--|
E|-------|

Other Bassline:

G|---------------|
D|---------------|
A|--5-5----------|
E|------5-3-1-0--|


Enjoy and have fun with this riddim :)

| /  slide up
| \  slide down
| h  hammer-on
| p  pull-off
| ~  vibrato
| +  harmonic
| x  Mute note
===============================================================================
Добавлено: 27.06.2016
Другие материалы по этой песне:
  • Аккорды и текст

Страница создана 27.06.2016
http://primanota.ru/stick-figure/mind-block-chords.htm
Привет, Гость.
Предлагаем пройти революционный курс по гитаре.
Подарок от PrimaNota.Ru, забирай!