PrimaNota.ru - самый крупный в мире бесплатный архив песенных текстов, аккордов, табулатур и нот


Stick Figure - Just Another Dream - таба, видео

Регистрация Запомнить меня
Войти через:  Facebook Google Twitter Vk Yandex Mail.ru

Stick Figure - Just Another Dream - таба, видео

Печатать
Просмотров: 60
-------------------------------------------------------------------------------
                             JUST ANOTHER DREAM - Stick Figure
-------------------------------------------------------------------------------
Tabbed by: Matt Walter


Tuning: Standard

Intro:
e|----------------------------------------------------------------|
B|-----3-----------3---------------11-------10--------------------|
G|--5b---5-3----5b---5-3-5------10-------10-------10-12----10-12--|
D|-----------5---------------12-------12-------12-------12--------|
A|----------------------------------------------------------------|
E|----------------------------------------------------------------|

e|--3--1--1--3--3--3--3--| 
B|--3--1--1--4--4--4--4--|
G|--3--2--2--5--5--5--5--|
D|--5--3--3--5--5--5--5--|
A|--5--3--3--3--3--3--3--|
E|--3--1--1--------------|

Chorus:
e|--3--3--1--1--3--3--3--3--|
B|--3--3--1--1--4--4--4--4--|
G|--3--3--2--2--5--5--5--5--|
D|--5--5--3--3--5--5--5--5--|
A|--5--5--3--3--3--3--3--3--|
E|--3--3--1--1--------------|

Bridge (3:07):
e|----------------------------------|--|-----------------------------------------|
B|----------------------------------|--|-----------------------------------------|
G|--------14-15-17-15-14-15-17------|x3|--17-19-17~----------17-19-17-17-15-17\--|
D|--19-17----------------------17\--|--|-----------171717-19---------------------|
A|----------------------------------|--|-----------------------------------------|
E|----------------------------------|--|-----------------------------------------|
    *   *                                           * * *  *

************************************

| *   palm mute
| /   slide up
| \   slide down
| h   hammer-on
| p   pull-off
| ~   vibrato
| +   harmonic
| x   Mute note
| b   Bend
| pb  Pre-bend
| br  Bend release
| pbr Pre-bend release
| brb Bend release bend

************************************
Добавлено: 16.08.2015
Другие материалы по этой песне:
  • Аккорды и текст

Страница создана 16.08.2015
http://primanota.ru/stick-figure/just-another-dream-chords.htm
Привет, Гость.
Предлагаем пройти революционный курс по гитаре.
Подарок от PrimaNota.Ru, забирай!