PrimaNota.ru - самый крупный в мире бесплатный архив песенных текстов, аккордов, табулатур и нот


Stick Figure - Fire On The Horizon - таба, видео

Регистрация Запомнить меня
Войти через:  Facebook Google Twitter Vk Yandex Mail.ru

Stick Figure - Fire On The Horizon - таба, видео

Печатать
Просмотров: 83
-------------------------------------------------------------------------------
                          Fire on the Horizon - Stick Figure
-------------------------------------------------------------------------------
Tabbed by: wattmalter

Tuning: Standard

Thanks to my guitar instructor Rex for helping out on this one, enjoy! 


Intro Chords: 
    D    F    G    D
e|--2----5----7----2--|
B|--3----6----8----3--|
G|--2----5----7----2--|
D|--0--------------0--|
A|--------------------|
E|--------------------|


Chords:

    D      F      G      D
e|--5------1------3------5------|
B|--7------1------3------7------|
G|--7(x4)--2(x4)--4(x4)--7(x4)--|
D|--7------3------5------7------|
A|--5------3------5------5------|
E|---------1------3-------------|


Guitar @ :13                           Guitar @ 1:07

You can figure out the palm mutes     

e|--10------------------------10--|   |--2----5----7----2--|
B|-----13--10101010--13-10-13-----|   |--3----6----8----3--|
G|--------------------------------|x15|--2----5----7----2--|x2
D|--------------------------------|   |--0--------------0--|
A|--------------------------------|   |--------------------|
E|--------------------------------|   |--------------------|


Distorted Guitar @ 2:27 

e|--2--2-------5--5-------7--7-------2--2------|
B|--3----3-----6----6-----8----8-----3----3----|
G|--2------2---5------5---7------7---2------2--|x2
D|--0--------------------------------0---------|
A|---------------------------------------------|
E|---------------------------------------------|


Guitar Solo @ 4:40

e|----------------------------------|----------------------------|
B|----------------------------------|----------------------------|
G|--12b13(12)(12)br12--10h12p10-----|------10-12-12brb-12-10-12--|
D|------------------------------12--|--/12-----------------------|
A|----------------------------------|----------------------------|
E|----------------------------------|----------------------------|

( ) = grace note

e|----------------------------------|--------------------------------------------|
B|----------------------------------|--------------------------------------------|
G|------10-12-12brb-12-10--(10)h12--|--12b(1/2)12121212brb12--10-12-10-----------|
D|--/12-----------------------------|---------------------------------12--10-12--|
A|----------------------------------|--------------------------------------------|
E|----------------------------------|--------------------------------------------|

e|---------------------|----------------------------|
B|---------------------|----------------------------|
G|--12-12brb-12-10-----|------10-12-12brb-12-10-12--|
D|-----------------12--|--/12-----------------------|
A|---------------------|----------------------------|
E|---------------------|----------------------------|

( ) = grace note                         PH = Pinch Harmonic 
                                       
e|----------------------------------|----------------------------------------------------|
B|----------------------------------|----------------------------------------------------|
G|------10-12-12brb-12-10--(10)h12--|--12PHb(1/2)12121212brb12--10-12-10-----------------|
D|--/12-----------------------------|------------------------------------12--10-12--12\--|
A|----------------------------------|----------------------------------------------------|
E|----------------------------------|----------------------------------------------------|

e|---------------------------|  |--------------------------|
B|---------------------------|  |--------------------------|
G|---------------------------|x2|--------------------------|
D|-----12-10----10----10-12--|  |-----12-10----------------|
A|-----------12----12--------|  |-----------12-10----------|
E|--10-----------------------|  |--10-------------13-10~\--|



************************************

| /   slide up
| \   slide down
| h   hammer-on
| p   pull-off
| ~   vibrato
| +   harmonic
| x   Mute note
| b   Bend
| pb  Pre-bend
| br  Bend release
| pbr Pre-bend release
| brb Bend release bend

************************************
Добавлено: 27.06.2016
Другие материалы по этой песне:
  • Аккорды и текст

Страница создана 27.06.2016
http://primanota.ru/stick-figure/fire-on-horizon-chords.htm
Привет, Гость.
Предлагаем пройти революционный курс по гитаре.
Подарок от PrimaNota.Ru, забирай!