PrimaNota.ru - самый крупный в мире бесплатный архив песенных текстов, аккордов, табулатур и нот


Stick Figure - Coming Home - таба, видео

Регистрация Запомнить меня
Войти через:  Facebook Google Twitter Vk Yandex Mail.ru

Stick Figure - Coming Home - таба, видео

Печатать
Просмотров: 314
Уроки эстрадного вокала в Санкт-Петербурге
-------------------------------------------------------------------------------
                             COMING HOME - Stick Figure
-------------------------------------------------------------------------------
Tabbed by: wattmalter

Tuning: Standard

Intro: I'll leave the strumming pattern for you to figure out
e|--5----8----3----5--|
B|--5----8----3----5--|
G|--5----9----4----5--|x2
D|--7----10---5----7--|
A|--7----10---5----7--|
E|--5----8----3----5--|

e|--5~----8~----3~----3----5~----5--------5~----8~----8--------3~----3----5--|
B|--5~----8~----3~----3----5~------5------5~----8~------8------3~----3----5--|
G|--5~----9~----4~----4----5~--------5----5~----9~--------9----4~----4----5--|
D|--7~----10~---5~----5----7~-------------7~----10~------------5~----5----7--|
A|--7~----10~---5~----5----7~-------------7~----10~------------5~----5----7--|
E|--5~----8~----3~----3----5~-------------5~----8~-------------3~----3----5--|

Chorus: "Reggae skank"
e|--5------8------3------5------|
B|--5------8------3------5------|
G|--5(x4)--9(x4)--4(x4)--5(x4)--|
D|--7------10-----5------7------|
A|--7------10-----5------7------|
E|--5------8------3------5------|

Bridge:
e|--1------5------|
B|--1------5------|
G|--2(x4)--5(x4)--|x4
D|--3------7------|
A|--3------7------|
E|--1------5------|

e|-----------------|
B|--5--------------|
G|--7b--5h7p5------|x2
D|------------9\7--|
A|-----------------|
E|-----------------|


************************************

| /   slide up
| \   slide down
| h   hammer-on
| p   pull-off
| ~   vibrato
| +   harmonic
| x   Mute note
| b   Bend
| pb  Pre-bend
| br  Bend release
| pbr Pre-bend release
| brb Bend release bend

************************************
Добавлено: 30.11.2015
Другие материалы по этой песне:
  • Аккорды и текст

Страница создана 30.11.2015
http://primanota.ru/stick-figure/coming-home-chords.htm
Привет, Гость.
Предлагаем пройти революционный курс по гитаре.
Подарок от PrimaNota.Ru, забирай!