PrimaNota.ru - самый крупный в мире бесплатный архив песенных текстов, аккордов, табулатур и нот


Stick Figure - The Choice Is Yours - таба, видео

Регистрация Запомнить меня
Войти через:  Facebook Google Twitter Vk Yandex Mail.ru

Stick Figure - The Choice Is Yours - таба, видео

Печатать
Просмотров: 78
Stick Figure - The Choice is Yours (feat. Slightly Stoopid)

Chords: Emin    Gmaj    Dmaj    Emin

Intro (0:33):

     Emin          G maj          Dmaj          Emin
E: -------------------------------------------------------------|
B: ------8-7-----------8-7------------7-8-7---------8-7---------|
G: ----9-----9-------9--------------9-------------9-----9-------|   Repeat 2X
D: --9-------------9--------------9-------------9---------------|
A: -------------------------------------------------------------|
E: -------------------------------------------------------------|

Verse I (0:56):
Emin                                                     Gmaj
Your minds long gone, you're run down, you're all out of smoke
Dmaj                             Emin
Light me up a cigarette before I go
Emin                                          Gmaj
Your whole world fits inside the palm of your hands
Dmaj                                           Emin
I try to tell 'em man but they just don't understand

Chorus (1:19):
Emin                            Gmaj
The choice is yours / When you're ready
              Dmaj         Emin
The choice is yours / Woah Hooooo
Emin                            Gmaj
The choice is yours / Takin' it easy
              Dmaj                  Emin
The choice is yours / The choice is yours

Verse II (1:42):
Emin                                         Gmaj
Your arms wide open and the walls are caving in
Dmaj                                     Emin
Don't bury your secrets deep within your skin
                                                        Gmaj
When you focus on the good things, all things under the sun
    Dmaj                                                  Emin
You free yourself from negativity and then the good shall come

Chorus (2:03)

Intro (2:26)

Verse III (2:38):
Emin
The choice is yours and the choice is mine
                 Gmaj
You can't please everybody all of the time
             Dmaj
Can hope and pray things will be just fine
          Emin
But might not know until the end of the line

Happiness is only a state of mind
          Gmaj
Open your eyes and in time you will find

             Dmaj
Open up your heart and let your love light shine
             Emin
And it don't cost a penny, nickel or dime

Bridge (3:00)
                                                        Gmaj
Give a little love and give a little is the way that it goes
                                              Dmaj
What goes around it comes around and everyone knows
                                                      Emin
What you give is what you get so take a look cause it shows

Picking up your brother any time he feeling low
                                       Gmaj
Smokin up a chalice or a spliff of pacalo
                                            Dmaj
Rollin' up the best and nothing less than hydro
                                                           Emin
When I'm smoking on my spliff don't burn it fast I like it slow

Moving up in a style and in a fashion I'm supposed
                                             Gmaj
Open up another door anytime another door is closed
                                            Dmin
Move into the light and from the dark now exposed
                                                         Emin
When I'm reachin' to the sky and spread it out to let it grow

Never do a thing just cause somebody's sayin' so

Intro / Dub Chorus (3:36)
Mmmmmm The choice is yours
Yeah... yours
The choice is yours...

Guitar Solo

3:58
E: --------------------------------------------------------------------------------|
B: --------------------------------------------------------------------------------|
G: --/9-----9p7--------------------------------------------------------------------|
D: --------------9----5/7----7b9b7-5-----------------------------------------------|
A: ---------------------------------7----------------------------------------------|
E: --------------------------------------------------------------------------------|

4:08
E: ---------------------------------------------------------------------------|
B: --/12----12-12-12\10-8-8----8h10-10-10b12b10--8-8h10----8-10b12b10---------|
G: -------------------------------------------------------------------9---9\--|
D: ---------------------------------------------------------------------------|
A: ---------------------------------------------------------------------------|
E: ---------------------------------------------------------------------------|

E: ---------------------------------------------------------------------------|
B: --/12----12-12-12\10-8-8----8-10-10b12b10--8-8h10-8-10-10b12b10-8----------|
G: ------------------------------------------------------------------9-7h9----|
D: ---------------------------------------------------------------------------|
A: ---------------------------------------------------------------------------|
E: ---------------------------------------------------------------------------|

4:32
E: --12---------12-12-10------------------------------------------------------|
B: -----12---12----------12---12-10-8-8h10-10-13-12h13p12---10-8--------------|
G: ---------------------------------------------------------------------------|
D: ---------------------------------------------------------------------------|
A: ---------------------------------------------------------------------------|
E: ---------------------------------------------------------------------------|

E: --12----------12-14-10--------------------------------------------------------|
B: -----12---12-----------12-----12-10-8-8h10-10b12b10-8-------------------------|
G: ------------------------------------------------------9-----9\----------------|
D: ------------------------------------------------------------------------------|
A: ------------------------------------------------------------------------------|
E: ------------------------------------------------------------------------------|

E: ----------------------------------------14----15-14-12-------10------------|
B: ----------------8----8-10----10-12---12-------------------------12---------|
G: --9---9-11---11------------------------------------------------------------|
D: ---------------------------------------------------------------------------|
A: ---------------------------------------------------------------------------|
E: ---------------------------------------------------------------------------|


Legend:
/ - Slide Up
\ - Slide Down
p - Pull off
b - Bend
h - Hammer
Добавлено: 30.11.2015
Другие материалы по этой песне:
  • Аккорды и текст

Страница создана 30.11.2015
http://primanota.ru/stick-figure/choice-is-yours-chords.htm
Привет, Гость.
Предлагаем пройти революционный курс по гитаре.
Подарок от PrimaNota.Ru, забирай!