PrimaNota.ru - самый крупный в мире бесплатный архив песенных текстов, аккордов, табулатур и нот


Stevie Wright - Evie Part 1 - бас-таба, видео

Регистрация Запомнить меня
Войти через:  Facebook Google Twitter Vk Yandex Mail.ru

Stevie Wright - Evie Part 1 - бас-таба, видео

Печатать
Просмотров: 113
-------------------------------------------------------------------------------
                             EVIE (PART 1) - Stevie Wright
-------------------------------------------------------------------------------

from the album "Hard Road" (1974)
Written by Harry Vanda and George Young
Bass played by George Young

Original tab written by Andrew Teo of AndrewTeoMusicStudio.com
Made digital and tabbed here by: benmneb

Tuning: Standard
Timing: 4/4
Key: Em

Note: this is the tab to the ORIGINAL recording by Australian rocker Stevie Wright,
NOT the 2005 cover by aussie supergroup "The Wrights", while I havent really heard
the cover, I imagine theyre very similar. This is arguably the most perfect rock
song ever written, and a damn fine bass line to get your fingers moving.
Please see the legend below the tab if the letters confuse you.

===============================================================================

  INTRO:

  Em 
  1 + 2 + 3 + 4 +  1 + 2 + 3 + 4 +  1 + 2 + 3 + 4 +  1 + 2 + 3 + 4 +
G|----------------|----------------|----------------|----------------|
D|----------------|----------------|----------------|----------------|
A|----------------|----------------|----------------|----------------|
E|0r----0h3h5r----|0r0r--0h3h5-3h5-|0r----0h3h5r----|0r0r--0h3h5-3h5-|

  1 + 2 + 3 + 4 +  1 + 2 + 3 + 4 +  1 + 2 + 3 + 4 +  1 + 2 + 3 + 4 +
G|----------------|----------------|----------------|----------------|
D|----------------|----------------|----------------|----------------|
A|----------------|----------------|----------------|----------4-5-6-|
E|0r----0h3h5r----|0r0r--0h3h5-3h5-|0r----0h3h5r----|0r0-5-6-7-------|

 VERSE 1:
    
  1 + 2 + 3 + 4 +  1 + 2 + 3 + 4 +  1 + 2 + 3 + 4 +  1 + 2 + 3 + 4 +
G|----------------|----0-----------|----------------|----0-----------|
D|----------------|0-2---2---------|----------------|0-2---2---------|
A|7r--------0h1h2-|----------------|----------0h1h2-|----------------|
E|----------------|----------------|----------------|----------------|

  1 + 2 + 3 + 4 +  1 + 2 + 3 + 4 +  1 + 2 + 3 + 4 +  1 + 2 + 3 + 4 +
G|----------------|----0-----------|----------------|----0-----------|
D|----------------|0-2---2---------|----------------|0-2---2---------|
A|----------0h1h2-|----------------|----------0h1h2-|--------------01|
E|----------------|----------------|----------------|-------------4--|

  B                A                B                D
  1 + 2 + 3 + 4 +  1 + 2 + 3 + 4 +  1 + 2 + 3 + 4 +  1 + 2 + 3 + 4 +
G|----------------|----------------|----------------|----------------|
D|----------------|----------------|----------------|-----------20---|
A|2---2---2--2--21|0---0---0--0--01|2---2---2--2-234|5---5---5----210|
E|-------2--2--2--|-------0--0--4--|-------2--2-----|-------5--------|

CHORUS:

  Em
  1 + 2 + 3 + 4 +  1 + 2 + 3 + 4 +  1 + 2 + 3 + 4 +  1 + 2 + 3 + 4 +
G|----------------|-----0----------|----------------|-----0----------|
D|0-2-----0-2-----|0-0-0-2---0-----|0-2-----0-2-----|0-0-0-2---------|
A|----------------|-2-2-------20---|----------------|-2-2-------/7---|
E|----0r------0r--|-------------3b0|----0r------0r--|----------------|

  Em
  1 + 2 + 3 + 4 +  1 + 2 + 3 + 4 +  1 + 2 + 3 + 4 +  1 + 2 + 3 + 4 +
G|----------------|-----0----------|----------------|----0-----------|
D|0-2-----0-2-----|0-0-0-2---0-----|0-2-----0-2-----|4----4-2\-------|
A|----------------|-2-2-------20---|---------------0|----------------|
E|----0r------0r--|-------------3b0|----0r------0r--|----------------|

repeat last 4 bars of INTRO

  VERSE 2:

  Em        Am
  1 + 2 + 3 + 4 +  1 + 2 + 3 + 4 +  1 + 2 + 3 + 4 +  1 + 2 + 3 + 4 +
G|----------------|----0-----------|----------------|----0-----------|
D|----------------|0-2---2---------|----------------|0-2---2---------|
A|7r--------0h1h2-|----------------|----------0h1h2-|----------------|
E|----------------|----------------|----------------|----------------|

  1 + 2 + 3 + 4 +  1 + 2 + 3 + 4 +  1 + 2 + 3 + 4 +  1 + 2 + 3 + 4 +
G|----------------|----0-----------|----------------|----0-----------|
D|----------------|0-2---2---------|----------------|0-2---2---------|
A|----------0h1h2-|----------------|----------0h1h2-|--------------01|
E|----------------|----------------|----------------|-------------4--|

  B                A                B                D
  1 + 2 + 3 + 4 +  1 + 2 + 3 + 4 +  1 + 2 + 3 + 4 +  1 + 2 + 3 + 4 +
G|--------2-4----2|----------0--22h|4--4----------24|7---------------|
D|----2h4-----2h4-|----0h2-2---4---|----4-------24--|--------20------|
A|2---------------|0---------------|--------2-------|----------20h10-|
E|----------------|----------------|----------------|---------------3|

repeat CHORUS

  SOLO:

rest for 10 bars (or 6 lead guitar riffs) then

  Em
  1 + 2 + 3 + 4 +  1 + 2 + 3 + 4 +  1 + 2 + 3 + 4 +  1 + 2 + 3 + 4 +
G|----------------|----------------|----------------|----------------|
D|----------------|----------------|----------------|----------------|
A|----------------|----------------|----------------|----------------|
E|----------------|----------------|----------------|----------------|

  1 + 2 + 3 + 4 +  1 + 2 + 3 + 4 +  1 + 2 + 3 + 4 +  1 + 2 + 3 + 4 +
G|----------------|----------------|----------------|----------------|
D|----------------|----------------|----------------|----------------|
A|----------------|----------------|----------------|----------------|
E|----------------|----------------|----------------|----------------|

  1 + 2 + 3 + 4 +  1 + 2 + 3 + 4 +  1 + 2 + 3 + 4 +  1 + 2 + 3 + 4 +
G|----------------|----------------|----------------|----------------|
D|----------------|----------------|----------------|----------------|
A|----------------|----------------|----------------|----------------|
E|----------------|----------------|----------------|----------------|

  1 + 2 + 3 + 4 +  1 + 2 + 3 + 4 +  1 + 2 + 3 + 4 +  1 + 2 + 3 + 4 +
G|----------------|----------------|----------------|----------------|
D|----------------|----------------|----------------|----------------|
A|----------------|----------------|----------------|----------------|
E|----------------|----------------|----------------|----------------|

  BRIDGE:

  Em               A                D                C
  1 + 2 + 3 + 4 +  1 + 2 + 3 + 4 +  1 + 2 + 3 + 4 +  1 + 2 + 3 + 4 +
G|----------------|----------------|----------------|----------------|
D|----------------|----------------|----------------|----------------|
A|----------------|----------------|----------------|----------------|
E|----------------|----------------|----------------|----------------|

  Em               A                D                C
  1 + 2 + 3 + 4 +  1 + 2 + 3 + 4 +  1 + 2 + 3 + 4 +  1 + 2 + 3 + 4 +
G|----------------|----------------|----------------|----------------|
D|----------------|----------------|----------------|----------------|
A|----------------|----------------|----------------|----------------|
E|----------------|----------------|----------------|----------------|

repeat VERSE 1

repeat CHORUS

  OUTRO:

  D                A                C                Em
  1 + 2 + 3 + 4 +  1 + 2 + 3 + 4 +  1 + 2 + 3 + 4 +  1 + 2 + 3 + 4 +
G|----------------|----------------|----------------|----------------|
D|----------------|----------------|----------------|----------------|
A|----------------|----------------|----------------|----------------|
E|----------------|----------------|----------------|----------------|

  D                A                C                Em
  1 + 2 + 3 + 4 +  1 + 2 + 3 + 4 +  1 + 2 + 3 + 4 +  1 + 2 + 3 + 4 +
G|----------------|----------------|----------------|----------------|
D|----------------|----------------|----------------|----------------|
A|----------------|----------------|----------------|----------------|
E|----------------|----------------|----------------|----------------|

===============================================================================

Yep, bits are missing... but theyre coming.

===============================================================================

Structure:

1. Intro
2. Verse 1
3. Chorus
4. Re-Intro
5. Verse 2
6. Chorus
7. Solo
8. Bridge
9. Verse 3
10. Chorus
11. Outro

===============================================================================

Legend:

| r  rest
| h  hammer-on
| /  slide up
| \  slide down
| b  bend - all bends in this track are 1/4

===============================================================================
Добавлено: 08.08.2015
Вам также может быть интересно:
Другие материалы по этой песне:
  • Аккорды и текст

Страница создана 08.08.2015
http://primanota.ru/stevie-wright/evie-part-1-chords.htm
Привет, Гость.
Предлагаем пройти революционный курс по гитаре.
Подарок от PrimaNota.Ru, забирай!