PrimaNota.ru - самый крупный в мире бесплатный архив песенных текстов, аккордов, табулатур и нот


Stevie Wonder - Id Cry - бас-таба, видео

Регистрация Запомнить меня
Войти через:  Facebook Google Twitter Vk Yandex Mail.ru

Stevie Wonder - Id Cry - бас-таба, видео

Печатать
Просмотров: 126
-------------------------------------------------------------------------------
                             I'D CRY - Stevie Wonder
-------------------------------------------------------------------------------

Tabbed By : Paul Raven
Original Bassist: James Jamerson
Standard Tuning: E A D G

G|----------------5----|-6---6--------6---6--------|
D|-----------6---------|---------------------------|
A|-4----4--------------|---------4------------4----|
E|---------------------|---------------------------|


G|----------------4----|-5---5--------5---5--------|----------------3----|-4---4--------4---4----|
D|-----------5---------|---------------------------|-----------4---------|-----------------------|
A|-3----3--------------|---------3------------3----|-2----2--------------|---------2------------2|
E|---------------------|---------------------------|---------------------|-----------------------|


G|------------------------|-------------------------------|
D|-4----4---3-------------|-6----6------------------------|
A|--------------6----6----|---------------------1--2--3---|
E|------------------------|-----------2--3--4-------------|
Добавлено: 14.08.2013
Другие материалы по этой песне:
  • Аккорды и текст

Страница создана 14.08.2013
http://primanota.ru/stevie-wonder/id-cry-chords.htm
Привет, Гость.
Предлагаем пройти революционный курс по гитаре.
Подарок от PrimaNota.Ru, забирай!