PrimaNota.ru - самый крупный в мире бесплатный архив песенных текстов, аккордов, табулатур и нот


Stevie Ray Vaughan - Voodoo child - таба, видео

Регистрация Запомнить меня
Войти через:  Facebook Google Twitter Vk Yandex Mail.ru

Stevie Ray Vaughan - Voodoo child - таба, видео

Печатать
Просмотров: 187


Intro
               Repeat three times
e-----------------------------------------
b-----------------------------------------
g--9~7-----7------------------------------
d-------9-----5-5---7p5----9~7-----7-9~---
a-----------------------7-------7---------
E-----------------------------------------

       After repeating 3 times do this
e-------------------------------------------
b---------------10^-8-----------------------
g---9~7-----9-------------------------------
d--------9-----------------102-------------
a-------------------------------------------
E-------------------------------------------

e--------------------------------------
b--------------------------------------
g------------2h3p2p0-------------------
d-2-2-----------------2-2--------------
a-2-2-----------------2-2--------------
E------3p0-----------------3p0---------

 Just listen to^ the song to get the rythym
   of this part^

  I'm not sure on the solo, but it's something like this...


e-----------------------------------------
b-15^15^--12--15^15^---12h15p12-----------
g-----------------------------------------
d-----------------------------------------
a-----------------------------------------
E-----------------------------------------

e-------12--------------------------------
b-------12--------------------------------
g--14^------14p12-14^12-------------------
d-----------------------------------------
a-----------------------------------------
E-----------------------------------------

I know that the first part is 100% correct..but the solo im not to sure
on.. but have fun with it.. if you find anything else about it e-mail me
at jc42039@yahoo.com


Добавлено: 14.11.2013
Другие материалы по этой песне:
  • Аккорды и текст

Страница создана 12.11.2013
http://primanota.ru/stevie-ray-vaughan/voodoo-child-chords.htm
Привет, Гость.
Предлагаем пройти революционный курс по гитаре.
Подарок от PrimaNota.Ru, забирай!