PrimaNota.ru - самый крупный в мире бесплатный архив песенных текстов, аккордов, табулатур и нот


Stevie Ray Vaughan - In the Open - таба, видео

Регистрация Запомнить меня
Войти через:  Facebook Google Twitter Vk Yandex Mail.ru

Stevie Ray Vaughan - In the Open - таба, видео

Печатать
Просмотров: 81
IN THE OPEN  -- SRV, from "In the Beginning"
 
  This is the opening tune to this live album...if you don't own it
  then you're missing out on the best stevie ever released IMO

Ben Reece  monkeywheet@yahoo.com




 1   2   3   4    1   2   3   4    1   2   3   4    1   2   3   4   
|----------------|----------------|----------------|----------------|
|----------------|----------------|----------------|----------------|
|----------------|----------------|----------------|----------------|
|----------------|----------------|----------------|----------------|
|----------------|----------------|----------------|----------------|
|----------------|----------------|----------------|--0---0-3-0-4-0-|

 1   2   3   4    1   2   3   4    1   2   3   4    1   2   3   4   
|----------------|----------------|----------------|----------------|
|5-5---5---5---5/|----------------|5-5---5---5---5/|----------------|
|4-4---4---4---4/|----------------|4-4---4---4---4/|----------------|
|5-5---5---5---5/|----------------|5-5---5---5---5/|----------------|
|4-4---4---4---4/|----------------|4-4---4---4---4/|----------------|
|----------------|--0---0-3-0-4-0-|----------------|--0---0-3-0-4-0-|

 1   2   3   4    1   2   3   4    1   2   3   4    1   2   3   4   
|----------------|----------------|----------------|----------------|
|5-5---5---5---5/|----------------|5-5---5---5---5/|----------------|
|4-4---4---4---4/|----------------|4-4---4---4---4/|----------------|
|5-5---5---5---5/|----------------|5-5---5---5---5/|----------------|
|4-4---4---4---4/|----------------|4-4---4---4---4/|--0---0-3-0-4-0-|
|----------------|--0---0-3-0-4-0-|----------------|----------------|
 
 1   2   3   4    1   2   3   4    1   2   3   4    1   2   3   4   
|--------------5=|----------------|--------------5=|----------------|
|----------5=====|----------------|----------5=====|----------------|
|------5=========|----------------|------5=========|----------------|
|--4=============|----------------|--4=============|----------------|
|5===============|--0---0-3-0-5-0-|5===============|----------------|
|----------------|----------------|----------------|--0---0-3-0-4-0-|
 

 1   2   3   4    1   2   3   4    1   2   3   4    1   2   3   4   
|--------------5=|----------------|--------------5=|----------------|
|----------5=====|----------------|----------5=====|----------------|
|------4=========|----------------|------4=========|----------------|
|--5=============|----------------|--5=============|----------------|
|4===============|----------------|4===============|--0---0-3-4-5-6-|
|----------------|--0---0-3-0-4-0-|----------------|----------------|

 1   2   3   4    1   2   3   4   1   2   3   4    1   2   3   4   
|7-7---7---7---7|----------------|----5-----------|----5---5--------|
|7-7---7---7---7|---7b8-5-7-5----|---5--5-7-5-----|------5---5-7-5--|
|7-7---7---7---7|---7b8-5-7-5----|------5-7-5-----|7b9---------7-5h6|
|6-6---6---6---6|-------------7-5|7~----------7-5-|-----------------|
|7-7---7---7---7|----------------|----------------|-----------------|
|---------------|----------------|----------------|-----------------|
 1   2   3   4    1   2   3   4    1   2   3   4    1   2   3   4   
|----------------|----------------|----------------|----------------|
|--5---5---5---5-|----------------|5-5---5---5---5-|----------------|
|--4---4---4---4-|----------------|4-4---4---4---4-|REPEAT----------|
|7-5---5---5---5-|----------------|5-5---5---5---5-|----------------|
|--4---4---4---4-|----------------|4-4---4---4---4-|----------------|
|----------------|--0---0-3-0-4-0-|----------------|----------------|
 
The solo is rediculous and cannot be tabbed my me...rediculous amounts
of picking hand strumming/beating the shit out of strings..phun.

__________________________________
     
Добавлено: 26.11.2013
Другие материалы по этой песне:

Страница создана 18.07.2012
http://primanota.ru/stevie-ray-vaughan/in-the-open-chords.htm
Привет, Гость.
Предлагаем пройти революционный курс по гитаре.
Подарок от PrimaNota.Ru, забирай!