PrimaNota.ru - самый крупный в мире бесплатный архив песенных текстов, аккордов, табулатур и нот


Stevie Ray Vaughan - Come on part 3 - таба, видео

Регистрация Запомнить меня
Войти через:  Facebook Google Twitter Vk Yandex Mail.ru

Stevie Ray Vaughan - Come on part 3 - таба, видео

Печатать
Просмотров: 110


this is what i got from pickin the stuff out from the song. i dont know the whole thing
yet, i think it goes something like this. o ya, and tune a half step down

Eb
Bb
Gb
Db
Ab
Eb

-------------------------------------------------
-15-15-15-15-15-15-15-15-14-14-14-14-14-14-14-14-
-16-16-16-16-16-16-16-16-14-14-14-14-14-14-14-14-
-------------------------------------------------
-------------------------------------------------
-------------------------------------------------



-------------------------------------------------
-------------------------------------------------
-------------------------------------------------
-2------2----------------------------------------
-------------------------------------------------
----3b-------------------------------------------

repeat this i think 5x and then it goes into this riff:


-------------------------------------------------
-------------------------------------------------
-------------------------------------------------
-------------------------------------------------
-----5-------------------------------------------
-5-7----5--7--5--3--0----------------------------



thats the only part of the song i know so far, if i figure out the rest of it,
i'll tab it. not bad for a thirteen year old eh
                               -chris

Добавлено: 04.11.2013
Другие материалы по этой песне:
  • Аккорды и текст

Страница создана 04.11.2013
http://primanota.ru/stevie-ray-vaughan/come-on-part-3-chords.htm
Привет, Гость.
Предлагаем пройти революционный курс по гитаре.
Подарок от PrimaNota.Ru, забирай!