PrimaNota.ru - самый крупный в мире бесплатный архив песенных текстов, аккордов, табулатур и нот


Stevie Ray Vaughan - All Your Love I Miss Loving - текст песни, таба, бас-таба, видео

Регистрация Запомнить меня
Войти через:  Facebook Google Twitter Vk Yandex Mail.ru

Stevie Ray Vaughan - All Your Love I Miss Loving - текст песни, таба, бас-таба, видео

Печатать
Просмотров: 170
E||-------|-------|-------|-------|-------|-------|-------|-------|-------|
B||-------|-------|-------|-------|-------|-------|-------|-------|-------|
G||-------|-------|-------|-------|-------|-------|-------|-------|-------|
D||-------|-------|-------|-------|-------|-------|-------|-------|-------|
A||-------|-------|-------|-------|-------|-------|-------|-------|-------|
E||-------|-------|-------|-------|-------|-------|-------|-------|-------|


-------|-------|-------|-------|-------|-------|-------|-------|-------|-------|
-------|-------|-------|-------|-------|-------|-------|-------|-------|-------|
-------|-------|-------|-------|-------|-------|-------|-------|-------|-------|
-------|-------|-------|-------|-------|-------|-------|-------|-------|-------|
-------|-------|-------|-------|-------|-------|-------|-------|-------|-------|
-------|-------|-------|-------|-------|-------|-------|-------|-------|-------|


                                          |-----3----|                      
                                          Q     Q    Q      E  E    E  E    
-------|-------|-------|-------|-------|-------/6----3----1g3--1-----------|
-------|-------|-------|-------|-------|--------------------------1g3------|
-------|-------|-------|-------|-------|-------------------------------3h--|
-------|-------|-------|-------|-------|-----------------------------------|
-------|-------|-------|-------|-------|-----------------------------------|
-------|-------|-------|-------|-------|-----------------------------------|


  E  Q     E   H           E  S  S E  E  E  E  E  S  S   
------------------------|-------------------------------|
------------------------|-------------------------------|
--5--3------------------|----------------3--3--5--5h-7h-|
----------(3)-----------|-----3h-5-L--5-----------------|
------------------------|-------------------------------|
------------------------|-------------------------------|


                             |-----3----|                    
  E  S  S  E  E  H           Q     Q    Q    E  E  S  S E    
--------------------------|-------/6----3----3--1-----------|
--------------------------|------------------------1h-3-----|
--L--5p-3p-0--------------|-----------------------------3h--|
--------------------------|---------------------------------|
--------------------------|---------------------------------|
--------------------------|---------------------------------|


  E  E   E  E  H           E  S  S E  E  E  E  E  E    
------------------------|-----------------------------|
------------------------|-----------------------------|
--5---------------------|----------------3--3--5--7h--|
-----8p--5--------------|-----3h-5-L--5---------------|
------------------------|-----------------------------|
------------------------|-----------------------------|


  E  S  S  E  E  H           E  E  E  E  E  Q      E   
--------------------------|---------------------------|
--------------------------|---------------------------|
--L--5p-3p-0--------------|--------------3--5----5g7--|
--------------------------|-----3--5--5---------------|
--------------------------|---------------------------|
--------------------------|---------------------------|


  E   S  S  E  E  H           E  E  E  E  E  E  E  E   
---------------------------|--------------------------|
---------------------------|--------------------------|
--L--10p-7p-5--------------|--------------------3-----|
---------------------------|-----4--5--4--5--5-----5--|
---------------------------|--------------------------|
---------------------------|--------------------------|


                               |-----3----|                     
    E  S  S  E  E  H           Q     Q    Q      E   E  E  S S  
----------------------------|-------/6----3----1g3p--1--L------|
--1g3-----------------------|------------------------------1-1-|
-------5p-3p-0--------------|----------------------------------|
----------------------------|----------------------------------|
----------------------------|----------------------------------|
----------------------------|----------------------------------|


  E  Q.     H           E  E  E  E  Q    E  E      Q.     E  H         
---------------------|--------------------------|---------------------|
--1------------------|--------------------------|---------------------|
-----3---------------|----------------------5h--|--3------------------|
---------------------|-----3--5--3--5----5------|---------------------|
---------------------|--------------------------|---------------------|
---------------------|--------------------------|---------------------|


  |-----3----|                                                 
  Q     Q    Q    S  S  E  E  S S      E  S  S  Q    H         
-------/6----3----2h-3p-1--L------|---------------------------|
------------------------------2-1-|--1g3----------------------|
----------------------------------|-------5p-3p-0-------------|
----------------------------------|---------------------------|
----------------------------------|---------------------------|
----------------------------------|---------------------------|


  E  E  E  E  Q    E  E      Q.     E  H           E  E  E  E  E  E  E  S  S  
--------------------------|---------------------|----------------------------|
--------------------------|---------------------|-----------------------1h-3-|
----------------------5h--|--3------------------|--------------3--5--L-------|
-----3--5--3--5----5------|---------------------|-----4--5--5----------------|
--------------------------|---------------------|----------------------------|
--------------------------|---------------------|----------------------------|


  E  S  S  E  E  H           E  E  E  E  Q    E  S  S     H        H         
--------------------------|----------------------------|--------------------|
--L--6p-4p-1--------------|----------------------------|--------------------|
--------------------------|----------------------7p-5h-|--0-----------------|
--------------------------|-----4--5--3--5----5--------|--------------------|
--------------------------|----------------------------|--------------------|
--------------------------|----------------------------|--------------------|


----|----|----|----|----|----|----|----|----|----|----|----|----|----|----|----|
----|----|----|----|----|----|----|----|----|----|----|----|----|----|----|----|
----|----|----|----|----|----|----|----|----|----|----|----|----|----|----|----|
----|----|----|----|----|----|----|----|----|----|----|----|----|----|----|----|
----|----|----|----|----|----|----|----|----|----|----|----|----|----|----|----|
----|----|----|----|----|----|----|----|----|----|----|----|----|----|----|----|


----|----|----|----|----|----|----|----|----|----|----|----|----|----|----|----|
----|----|----|----|----|----|----|----|----|----|----|----|----|----|----|----|
----|----|----|----|----|----|----|----|----|----|----|----|----|----|----|----|
----|----|----|----|----|----|----|----|----|----|----|----|----|----|----|----|
----|----|----|----|----|----|----|----|----|----|----|----|----|----|----|----|
----|----|----|----|----|----|----|----|----|----|----|----|----|----|----|----|


----|----|----|----|----|----|----|----|----|----|----|----|----|----|----|----|
----|----|----|----|----|----|----|----|----|----|----|----|----|----|----|----|
----|----|----|----|----|----|----|----|----|----|----|----|----|----|----|----|
----|----|----|----|----|----|----|----|----|----|----|----|----|----|----|----|
----|----|----|----|----|----|----|----|----|----|----|----|----|----|----|----|
----|----|----|----|----|----|----|----|----|----|----|----|----|----|----|----|


  E  E   E   E  E   E  E   E     E  E  Q    H         
-----2h--3p--2--3p--2--3p--2--|--3--3----------------|
------------------------------|----------------------|
------------------------------|----------------------|
------------------------------|----------------------|
------------------------------|----------------------|
------------------------------|----------------------|


  E   E  E   E  E   E  E  E      E  E  Q    H         
-----/3--3p--2--3p--2--3--2h--|--3--3----------------|
------------------------------|----------------------|
------------------------------|----------------------|
------------------------------|----------------------|
------------------------------|----------------------|
------------------------------|----------------------|


                             |---3---|                   
  E  E   E   E   H           E   E   E   E  E  H         
-----2h--3h--5p--3--------|-----------------------------|
--------------------------|-----------------------------|
--------------------------|--7p--5p--3p--0--------------|
--------------------------|-----------------------------|
--------------------------|-----------------------------|
--------------------------|-----------------------------|


                     |--3--|                          
  E  E  E  E  E   E  E  E  E     E  E  Q    H         
-----7--3--1------------------|----------------------|
--------------8p--5--1--1-----|----------------------|
---------------------------3--|--L--3----------------|
------------------------------|----------------------|
------------------------------|----------------------|
------------------------------|----------------------|


                    |--3--|                          
  E   Q    E  E  E  E  E  E     E  E  Q    H         
-----/3----3--1--1-----------|----------------------|
--------------------3--3--3--|--L-------------------|
-----------------------------|----------------------|
-----------------------------|----------------------|
-----------------------------|----------------------|
-----------------------------|----------------------|


  E     Q    E  Q    E  E     Q    Q    H         
---------------------------|---------------------|
---------------------------|---------------------|
-----12g3----3--L----------|---------------------|
---------------------3--5--|--L------------------|
---------------------------|---------------------|
---------------------------|---------------------|


  E  E   E   E    E   E    E   E     E   E  E   E  E   E  E    E   
-----2h--3p--2--2g3p--2--2g3p--2--|--3p--2--3p--2--3p--2--3--2g3--|
----------------------------------|-------------------------------|
----------------------------------|-------------------------------|
----------------------------------|-------------------------------|
----------------------------------|-------------------------------|
----------------------------------|-------------------------------|


             |------3------|                              
  E  E  Q    Q      Q      Q         E  E  Q    H         
--L---------------2g3----2g3----|--2g3-------------------|
--------------------------------|------------------------|
--------------------------------|------------------------|
--------------------------------|------------------------|
--------------------------------|------------------------|
--------------------------------|------------------------|


  E  E   E   E    H           S  S  S  S E  E  H         
-----1h--3h--5--2g3--------|----------------------------|
---------------------------|----------------------------|
---------------------------|--7p-5p-3p-0-L--------------|
---------------------------|----------------------------|
---------------------------|----------------------------|
---------------------------|----------------------------|


          |---3--|  |---3--|  |--3--|                         
  E    E  E  E   E  E   E  E  E  E  E     Q    Q    H         
-----5g6--L--3p--1---------------------|---------------------|
--------------------8p--1--1--1--1-----|---------------------|
------------------------------------3--|--L------------------|
---------------------------------------|---------------------|
---------------------------------------|---------------------|
---------------------------------------|---------------------|


  |-----3----|          |--3--|                          
  Q     Q    Q    E  E  E  E  E     E  E  Q    H         
-------/3----3----1--1-----------|----------------------|
------------------------3--3--2--|--L--2----------------|
---------------------------------|----------------------|
---------------------------------|----------------------|
---------------------------------|----------------------|
---------------------------------|----------------------|


  E    Q    E  Q    E  E     Q    Q    H           W                       
--------------------------|---------------------|-------------------|-----|
--------------------------|---------------------|-------------------|-----|
-----7g3----3--L----------|---------------------|-------------------|-----|
--------------------3--5--|--L------------------|-------------------|-----|
--------------------------|---------------------|-------------------|-----|
--------------------------|---------------------|-------------------|-----|


-----|-----|-----|-----|-----|-----|-----|-----|-----|-----|
-----|-----|-----|-----|-----|-----|-----|-----|-----|-----|
-----|-----|-----|-----|-----|-----|-----|-----|-----|-----|
-----|-----|-----|-----|-----|-----|-----|-----|-----|-----|
-----|-----|-----|-----|-----|-----|-----|-----|-----|-----|
-----|-----|-----|-----|-----|-----|-----|-----|-----|-----|


  |-----3----|                                             
  Q     Q    Q      E  E    E  E      E  Q    E  H         
-------/6----3----1g3--1-----------|----------------------|
--------------------------1g3------|----------------------|
-------------------------------3h--|--5--3----------------|
-----------------------------------|----------3-----------|
-----------------------------------|----------------------|
-----------------------------------|----------------------|


  E  E   E  E  E  E  E  S  S    E  S  S E  E  H         
-----------------------------|-------------------------|
---------------------1--1h-3-|--L----------------------|
---------------3--3----------|-----2p-0-L--------------|
-----3h--5--5----------------|-------------------------|
-----------------------------|-------------------------|
-----------------------------|-------------------------|


  |-----3----|                                           
  Q     Q    Q      E  E  E  E     E  E   Q    H         
-------/6----3----1g3--1--------|-----------------------|
--------------------------3-----|-----------------------|
-----------------------------3--|--L--3p--0-------------|
--------------------------------|-----------------------|
--------------------------------|-----------------------|
--------------------------------|-----------------------|


  E  E   E  E  E  E  E  S  S    E  S  S E  E  H         
-----------------------------|-------------------------|
---------------------1--3h-5-|--L----------------------|
---------------3--3----------|-----3p-0-L--------------|
-----3h--5--5----------------|-------------------------|
-----------------------------|-------------------------|
-----------------------------|-------------------------|


  E  E  E  E  E  E  E  S  S    E  S  S Q    H         
----------------------------|------------------------|
-----------------1--L--1h-3-|--L--6p-3---------------|
-----3--5--5--3-------------|----------3-------------|
----------------------------|------------------------|
----------------------------|------------------------|
----------------------------|------------------------|


  E  E  E  E  E  E  E  E      E  S  S  Q    H         
--------------------------|--------------------------|
--------------------------|--/3----------------------|
--------------------3-----|------5p-3p-0-------------|
-----5--5--3--5--5-----5--|--------------------------|
--------------------------|--------------------------|
--------------------------|--------------------------|


  |-----3----|                                            
  Q     Q    Q    S  S  E  E  S S    E  Q    E  H         
-------/6----3----1h-3p-1--L------|----------------------|
------------------------------2-1-|----------------------|
----------------------------------|--5--3----------------|
----------------------------------|----------------------|
----------------------------------|----------------------|
----------------------------------|----------------------|


  E  E  E  E  Q    E  E     Q.     E  H         
-------------------------|---------------------|
----------------------1--|---------------------|
-------------------------|--3------------------|
-----4--5--3--5----5-----|---------------------|
-------------------------|---------------------|
-------------------------|---------------------|


  |-----3----|                                                  
  Q     Q    Q      S E.  S S E       E   S  S  E  E  H         
-------/6----3----1g3-1---L------|-----------------------------|
----------------------------2-1--|--2g3------------------------|
---------------------------------|-----------------------------|
---------------------------------|-------10p-8p-5--------------|
---------------------------------|-----------------------------|
---------------------------------|-----------------------------|


  E  E  E  E  Q    E  E      Q.     E  H           E  E  E  E  E  E  E  S  S  
--------------------------|---------------------|----------------------------|
--------------------------|---------------------|-----------------1--L--1h-3-|
----------------------5h--|--3------------------|--------------3-------------|
-----3--5--3--5----5------|---------------------|-----3--5--5----------------|
--------------------------|---------------------|----------------------------|
--------------------------|---------------------|----------------------------|


                                             |--3--|                          
  E  Q    E  H           E  E  E  E  Q    E  S  S  S    Q     E  E  H         
----------------------|------------------------------|-----------------------|
--L--3----------------|------------------------------|-----------------------|
----------------------|----------------------7p-5p-3-|-----------------------|
----------------------|-----3--5--3--5----5----------|--5p----0--------------|
----------------------|------------------------------|-----------------------|
----------------------|------------------------------|-----------------------|


-----------|-----------|-----------|-----------|-----------|-----------|
-----------|-----------|-----------|-----------|-----------|-----------|
-----------|-----------|-----------|-----------|-----------|-----------|
-----------|-----------|-----------|-----------|-----------|-----------|
-----------|-----------|-----------|-----------|-----------|-----------|
-----------|-----------|-----------|-----------|-----------|-----------|


-----------|-----------|-----------|-----------|-----------|-----------|
-----------|-----------|-----------|-----------|-----------|-----------|
-----------|-----------|-----------|-----------|-----------|-----------|
-----------|-----------|-----------|-----------|-----------|-----------|
-----------|-----------|-----------|-----------|-----------|-----------|
-----------|-----------|-----------|-----------|-----------|-----------|


-----------|-----------|-----------|-----------|-----------|-----------|
-----------|-----------|-----------|-----------|-----------|-----------|
-----------|-----------|-----------|-----------|-----------|-----------|
-----------|-----------|-----------|-----------|-----------|-----------|
-----------|-----------|-----------|-----------|-----------|-----------|
-----------|-----------|-----------|-----------|-----------|-----------|


-----------|-----------|-----------|-----------|-----------|-----------|
-----------|-----------|-----------|-----------|-----------|-----------|
-----------|-----------|-----------|-----------|-----------|-----------|
-----------|-----------|-----------|-----------|-----------|-----------|
-----------|-----------|-----------|-----------|-----------|-----------|
-----------|-----------|-----------|-----------|-----------|-----------|


  E  E   Q      E   E  E   E     E  Q    E  H         
-----1h--2----2g3p--2--3p--2--|--3-------------------|
------------------------------|-----5----------------|
------------------------------|----------------------|
------------------------------|----------------------|
------------------------------|----------------------|
------------------------------|----------------------|


  |------3-----|                                         
  Q    Q    E  E   E   E  E  E      E  E  Q    H         
-------3----3--2h--3p--2--3--2h--|--3--3----------------|
---------------------------------|----------------------|
---------------------------------|----------------------|
---------------------------------|----------------------|
---------------------------------|----------------------|
---------------------------------|----------------------|


                            |---3---|                   
  E  E   E   E  H           E   E   E   E  E  H         
-----2h--3h--5--3--------|-----------------------------|
-------------------------|-----------------------------|
-------------------------|--6p--5p--3p--0--------------|
-------------------------|-----------------------------|
-------------------------|-----------------------------|
-------------------------|-----------------------------|


  |------3------|  |--3--|  |---3---|                           
  Q     Q    E  E  E  E  E  E  E    E      E  E  Q    H         
-------/6----3--1--3--------------------|----------------------|
----------------------2--2--2--2--------|----------------------|
----------------------------------5g3h--|--L--4----------------|
----------------------------------------|----------------------|
----------------------------------------|----------------------|
----------------------------------------|----------------------|


  |-----3----|          |--3--|                           
  Q     Q    Q    E  E  E  E  E      E  E  Q    H         
-------/3----3----1--1------------|----------------------|
------------------------3--3--2h--|--3--3----------------|
----------------------------------|----------------------|
----------------------------------|----------------------|
----------------------------------|----------------------|
----------------------------------|----------------------|


  E    Q    E  Q    E  E     E  Q    E  H                                  
--------------------------|----------------------|-----|-----|-----|-----||
--------------------------|----------------------|-----|-----|-----|-----||
-----7g3----3--L----------|----------------------|-----|-----|-----|-----||
--------------------3--5--|--L-------------------|-----|-----|-----|-----||
--------------------------|----------------------|-----|-----|-----|-----||
--------------------------|----------------------|-----|-----|-----|-----||

Track 2
     E   E  S   S S S E  E     E   E  E  E  E  S  S E  E   
E||--x/---------------------|--3b--L----------------------|
B||--x/-----5br-L-L---------|--3b--L-----------3b-L-------|
G||--x/-----5br-L-L-3-------|--3b--L-----------3b-L-------|
D||-------------------5-----|---------5--3--5-------5--3--|
A||-------------------------|-----------------------------|
E||----------------------3--|-----------------------------|


  E  S  S  S S E  E.  S  E  S S    E   S S E  E  E  E   E  E   
--------------------------------|--3b--L-3----------3b--------|
--------------------------------|--3b--L-3----------3b--------|
--------------------------------|--3b--L-3----------3b--------|
--5---------------3---3h-5------|----------5--3--5------5--3--|
-----3h-5~-L-5-5----------------|-----------------------------|
----------------------------3-3-|-----------------------------|


                                  tr                   
  E   E   E  E  E    S S E  E     W                    
------x/--L--------------------|----------------------|
------x/--L-----5br--L---------|----------------------|
-------------0--5br--L-3-------|--5(3)----------------|
--5----------0-----------5--5--|----------------------|
-------------0-----------------|----------------------|
-------------------------------|----------------------|


  E  E  S S E  E   S S E  S S    E   S S E  E  E  S  S E  E   
------------------------------|--3b--L-3---------------------|
------------------------------|--3b--L-3----------3b-L-------|
--L---------------------------|--3b--L-3----------3b-L-------|
---------------3b--L---5------|----------5--3--5-------5--3--|
-----5--L-5-5-----------------|------------------------------|
-------------------x-x----x-x-|------------------------------|


  E   E   E  E  E    S S E  E      E  E   E.  S S S   E  S E.   
------x/--L--------------------|-------------------------------|
------x/--L-----5br--L---------|------6~--L---6-6---5g6--L-5---|
-------------0--5br--L-3-------|--/7--7~--L---7-7---6g7--L-6---|
--5----------0-----------5--5--|-------------------------------|
-------------0-----------------|-------------------------------|
-------------------------------|-------------------------------|


                               tr     v                       
  E.  S E  E  S  S E  E  E     E.     S E  S  S S S E  E  E   
----------------------------|---------x----------------------|
--4---4---------------3-----|---------x-x--------------------|
--5---5-------5p-3----3-----|---------x-x--------------------|
-----------5-------5-----3--|--5(3)--------------------------|
----------------------------|--------------3h-5-L-5-5--3--3--|
----------------------------|--------------------------------|


                                                  v         
  E   E   Q    E    S S E  E     E   S S E  E  E  E  E  E   
------x/----------------------|--3b--L-3-------------------|
------x/-------5br--L---------|--3b--L-3----------3--------|
---------------5br--L-3-------|--3b--L-3----------3--------|
------------------------5-----|----------5--3--5-----5--3--|
--1---------------------------|----------------------------|
---------------------------3--|----------------------------|


  E  S  S  S S E  E  S S E  S S    S  S E  E  E  E  E   E  E   
--------------------------------|-------3---------------------|
--------------------------------|--3b-L-----------------------|
--------------------------------|--3b-L-------------3b--------|
--5---------------3--3-3-5--5-5-|----------5--3--5------5--3--|
-----3h-5~-L-5-5----------------|-----------------------------|
--------------------------------|-----------------------------|


                                    tr        v                
  E  E    E   E  S   S S S E  E     Q.        E  E  E   E  E   
-----3s---x/---------------------|----------------------------|
-----3s---x/-----5br-L-L---------|------------------4b--------|
-----------------5br-L-L-3-------|--5(3)------3--5------5--3--|
--5-----------0------------5--5--|----------------------------|
--------------0------------------|----------------------------|
--------------0---------------3--|----------------------------|


  E  S  S S S E  E   S S E.  S    E   S S E  E  E  E   E  E   
-------------------------------|--3b--L-3--------------------|
-----------------------------x-|--3b--L-3----------3b--------|
--5--------------------------x-|--3b--L-3----------3b--------|
-----------------3b--L-x-5---5-|----------5--3--5------5--3--|
-----3h-5-L-x-5----------------|-----------------------------|
-------------------------------|-----------------------------|


  E  E    E   E  E    S S E  E       E  E  E.  S S S   E  S E.   
-----3s---x/--------------------|-------------------------------|
-----3s---x/-----5br--L-L-------|-------6--L---6-6---5g6--L-5---|
-----------------5br--L-L----3--|--5g7--7--L---7-7---6g7--L-6---|
--5-----------0-----------5-----|-------------------------------|
--------------0-----------------|-------------------------------|
--------------------------------|-------------------------------|


                                 tr     v                       
  Q     E   E   S  S E  E  E     E.     S E  S  S S S E  E  E   
------------------------------|--------------------------------|
--4~------------5p-3----3-----|--------------------------------|
--5~-------(3)--5p-3----3-----|---------3-x--------------------|
------------5--------5-----3--|--5(3)---3-x--------------------|
------------------------------|--------------3h-5-5-5-5--3--3--|
------------------------------|--------------------------------|


  E  E  Q    H           E.  S E  E  E  S S  E   E     E  E  Q    H         
----------------------|-----------------------------|----------------------|
----------------------|-----------------3-Lb--------|----------------------|
----------------------|-----------------3-Lb--------|----------------------|
----------------------|-----------3--5-------5p--3--|--5-------------------|
--1-------------------|------x-x--------------------|----------------------|
----------------------|-----------------------------|----------------------|


  Q    E  E  E  S S  E  E     E  E  Q    H         
---------------------------|----------------------|
----------------3-Lb-------|----------------------|
----------------3-Lb-------|----------------------|
----------3--5-------5--3--|--5-------------------|
---------------------------|----------------------|
---------------------------|----------------------|


      |-3-|                                              
  E.  T T T E    E  E  Q     E      E  E  Q    H         
------x----------------3~----3~--|----------------------|
--------x------3g4--L--4~----4~--|----------------------|
----------x----4g5--L------------|--5-------------------|
------------x--------------------|----------------------|
---------------------------------|----------------------|
---------------------------------|----------------------|


  Q    E  E  E  S S  E  E     E  E  Q    H         
---------------------------|----------------------|
----------------3-Lb-------|----------------------|
----------------3-Lb-------|----------------------|
----------3--5-------5--3--|--5-------------------|
---------------------------|----------------------|
---------------------------|----------------------|


  Q    E    E  E  E  E   E        E   E  Q    H         
------------------5--4---4s---|---3--------------------|
------------------6--5---5s---|---4--------------------|
----------3g7--L-----6--(6)s--|--(5)-------------------|
------------------------------|------------------------|
------------------------------|------------------------|
------------------------------|------------------------|


  Q    E  E  E  S S  E  E     E  E  Q    H           Q    E  E  E  S  S E  E   
---------------------------|----------------------|---------------------------|
----------------3-Lb-------|----------------------|----------------3b-L-------|
----------------3-Lb-------|----------------------|----------------3b-L-------|
----------3--5-------5--3--|--5-------------------|----------3--5-------5--3--|
---------------------------|----------------------|---------------------------|
---------------------------|----------------------|---------------------------|


                             |-3-|                                              
  E  E  Q    H           E.  T T T E  E   E  S  S E  E     E  E  Q    H         
----------------------|------x--------------------------|----------------------|
----------------------|--------x-------------3b-L-------|----------------------|
----------------------|----------x-----------3b-L-------|----------------------|
--5-------------------|------------x--3h--5-------5--3--|--5-------------------|
----------------------|---------------------------------|----------------------|
----------------------|---------------------------------|----------------------|


  Q    E    E  E  E   E   E     Q.     E  H         
------------------3-------3--|--3------------------|
----------3g4--L--4--(4)--4--|--4------------------|
----------4g5--L------5------|--5------------------|
-----------------------------|---------------------|
-----------------------------|---------------------|
-----------------------------|---------------------|


  E.  S E  E  E  S  S E  E     E  E  Q    H         
------x---------------------|----------------------|
------x-x--------3b-L-------|----------------------|
------x-x--------3b-L-------|----------------------|
--------x--3--5-------5--3--|--5-------------------|
----------------------------|----------------------|
----------------------------|----------------------|


  Q    E   S  S  E  E  E   E       E  E  Q    H         
--------------------5------4s---|--3-------------------|
--------------------6--5---5s---|--4-------------------|
----------/5s-6s-7-----6--(6)s--|--5-------------------|
--------------------------------|----------------------|
--------------------------------|----------------------|
--------------------------------|----------------------|


      v                                                            
        |--3-|  |-3|                                               
  E.  S Q    E  E  Q     E  E     E    E   E   E   E   E   E   E   
------x------------------------|------------------10--------------|
------x-x----------3b----------|----------11--------------11------|
------x-x----------3b----------|-----/12------12------12------12--|
--------x----3--5--------5--3--|--5-------------------------------|
-------------------------------|----------------------------------|
-------------------------------|----------------------------------|


          |----3---|                                                            
   E   E  Q     S  S  E   E  E   E     E   S   S  E    E    E    E    E    E    
--10-----------10--------10-----10--|----------------------10~-----------------|
--11--11--L-------11-----11-----11--|-----10s-11-11~-----------------11~-------|
------12--L----------12--12-----12--|-----11s-12------12~-------12~-------12~--|
------------------------------------|------------------------------------------|
------------------------------------|------------------------------------------|
------------------------------------|------------------------------------------|


            |----3---|                                                         
   E    E   Q     S  S  E   E  E   E     E   S   S  E    E    E    E   E   E   
--10~------------10--------10-----10--|----------------------10~--------------|
-------11~--L-------11-----11-----11--|------------11~----------------11s--4--|
-------12~--L----------12--12-----12--|-----11s-12------12~-------12---Ls--5--|
--------------------------------------|---------------------------------------|
--------------------------------------|---------------------------------------|
--------------------------------------|---------------------------------------|


  H         E  E  E  E     E     E    E    E    E    E    E    E    
--3~--------x--3-----3--|----------------------10~-----------------|
--4~--------x--4-----4--|-----/(11)--11~-------11~-------11~-------|
--5~--------x--5-----5--|------/12--------12~-------12~-------12~--|
------------------------|------------------------------------------|
------------------------|------------------------------------------|
------------------------|------------------------------------------|


   E   E  E.   S  E   E  E   E     E   S   S  E   E   E   E   E   S  S  
--10----------10-----10-----10--|--------------------10----------------|
------11--L---11--x--11-----11--|------------11--------------11--------|
------12--L-------x--12-----12--|-----11s-12-----12------12------12s-7-|
--------------------------------|--------------------------------------|
--------------------------------|--------------------------------------|
--------------------------------|--------------------------------------|


  Q    E.  S E  E  S E.     Q.     E  S S E  E  S   S  
--5----L--------5--L-4---|--3---------3---------------|
--6----L---6-x--6--L-5---|--4-----------4----4--4s-11-|
--7----L---7-x--7--L-6---|--5------5------5-----5s-12-|
-------------------------|----------------------------|
-------------------------|----------------------------|
-------------------------|----------------------------|


        |--3--|  |--3--|     |--3-|   
   Q    Q     E  Q     E     Q    E   
--10----L----10--L----10----------3--|
--11----L----11--L----11----------3--|
--12----L----12--L----12--12g5----3--|
-------------------------------------|
-------------------------------------|
-------------------------------------|


                                                        v               
  |---3--|  |---3--|  |---3--|  |---3--|                                
  E   E  E  E   E  E  E   E  E  E   E  E     E   E  E   E  E  E  E  E   
---------3---------3---------3---------3--|-------------0--0--0--3--3--|
------3---------3---------3---------3-----|--6b--L--L~--0--0--0--5--5--|
--5b--------5b--------5b--------5b--------|-------------0--0--0--4--4--|
------------------------------------------|----------------0-----5--5--|
------------------------------------------|----------------------------|
------------------------------------------|----------------------------|


              |---3--|                                       
  E  E  E  E  E   E  E  E   E       E  E  E  E  E  E  E  E   
--L--3--3--3---------------------|-----0--------3--0--3--3--|
--L--3--3--3--6b--L--L--6b--6b~--|--L--0--------5--0--5--5--|
--L------------------------------|-----0--------4--0--4--4--|
--L------------------------------|-----0-----0--5--0--5--5--|
---------------------------------|-----------0--------------|
---------------------------------|--------3-----------------|


  |--3--|        |---3--|                                         
  E  E  E  E  E  E   E  E  E   E       E  E  E  E  E   E   E  E   
--L--3--3--3--3---------------------|-----0--------3--(0)--3--3--|
--L--3--3--3--3--6b--L--3--6b--6b~--|--L--0--------5---0---5--5--|
--L---------------------------------|-----0--------4---0---4--4--|
--L---------------------------------|-----0-----0--5---0---5--5--|
------------------------------------|-----------0----------------|
------------------------------------|--------3-------------------|


  3  3    |3|  |----3---| |-3|  |3|  3  3                               
  E  E.   S E  E  E  S  S E  S  S E  E  E     E   E  E  E  E  E  E  E   
--3------------3----------3----------------|------3--3--x--3--x--3--3--|
--5---------3-----3--6p-3-3--6b-L-L--3-----|------3--5--x--5--x--5--5--|
--3--5b---L-----------------------------0--|--3b-----4--x--4--x--4--4--|
--5----------------------------------------|---------5--x--5--x--5--5--|
-------------------------------------------|---------------------------|
-------------------------------------------|---------------------------|


  |-3|     |--3--|  |---3--|  |-----3-----|  
  E  S  E  E  E  E  E   E  E  S  S  E  S  S  
--x-----------3---------3--5--3h-5p-3-------|
--x--5-----3-----3--6b--3--3--3--------6b-L-|
-----5b-L-----------------------------------|
--------------------------------------------|
--------------------------------------------|
--------------------------------------------|


  |--3--|   |--3--|  |---3--|  |---3--|   
  E  E  E   E  E  E  E   E  E  E  E   E   
--3-----6b--3-----3---------3------------|
--3--3------3--6--3------3-----3--6s--8--|
---------------------5b------------------|
-----------------------------------------|
-----------------------------------------|
-----------------------------------------|


  |--3--|           |-3|  3   3    |3|                                         
  E  E  E   E   E   E  S  E.  E.   S E     E   E  S  S  S S S   S S S E    E   
-----6--------------6--8b-L---8p---6----|------6----------3-----------5----3--|
--8-----8~--8~--8~-------------------8--|--8~-----8p-6s-3-------------5----3--|
----------------------------------------|-------------------5br-L-3---5--3g4--|
----------------------------------------|---------------------------5---------|
----------------------------------------|-------------------------------------|
----------------------------------------|-------------------------------------|


          |---3---|   |----3---|   |----3---|   
  E  E    E   E   E   E    E   E   E    E   E   
-----0-------15--15-------15--15-----------15--|
-----0-------15--15--15---15--15--15---15------|
-----0--/16----------17b----------17b----------|
--5--0-----------------------------------------|
-----------------------------------------------|
-----------------------------------------------|


   |---3---|                         
   E   E   E   E   E   E   E  E  E   
----------15-------0--(3)-----3--3--|
--18b--L------15\--0---5---0--5--5--|
-------------------0---4---0--4--4--|
-----------------------5---0--5--5--|
------------------------------------|
------------------------------------|


  |---3---|   |---3---|   |---3---|  |----3---|   
  E  E    E   E   E   E   E   E   E  E   E    E   
--L--------------15--------------15--------------|
--L----------15------15--18b--L------------------|
--L--4s--16--------------------------0--17b--17--|
--L----------------------------------------------|
-------------------------------------------------|
-------------------------------------------------|


       v                            
           |--3--|                  
   E   E   E  E  E   E  E   E   E   
------15------------10--0--10--10--|
------15------------10--0--10--10--|
--15--15------------10--0--10--10--|
-------x-------------9--0---9---9--|
-------x---------------------------|
------15s--7--L--x-----------------|


   3   3     |--|   |---3---|    |---3---|    3   3   
   E   E.    S  E   E   E   E    E   E   E    E   E   
---x---------------15-----------15--15-------15--15--|
---x-----------15------15--18b--15--15--18b--15------|
---x--11s---16---------------------------------------|
---x-------------------------------------------------|
-----------------------------------------------------|
-----------------------------------------------------|


   E    Q.        S  S   S  S   S  S  S  S  
--18b--18b~------15------------------------|
--------------------18p-15-----------------|
---------------------------17br-L-15----15-|
-------------------------------------17----|
-------------------------------------------|
-------------------------------------------|


                |---3---|   |----3---|   
  E   Q.        E   E   E   E    E   E   
---------------15-------------------15--|
-----18b~----------18--15-------15------|
---------------------------17b----------|
----------------------------------------|
----------------------------------------|
----------------------------------------|


   |--3-|  |--|   |----3---|   |---3---|   |----3---|   
   E    S  S  E   E   E    E   E   E   E   E   E    E   
------------------------------15------15---------------|
--------------------------15------15------15--18s--20--|
--17br--L-15-----15--17b-------------------------------|
-------------17----------------------------------------|
-------------------------------------------------------|
-------------------------------------------------------|


   |------3------|                |---3---|   
   Q      Q      Q      E    E    E   E   E   
---------------------------------18--19--20--|
--20~----20~----20~----20~--20~--------------|
---------------------------------------------|
---------------------------------------------|
---------------------------------------------|
---------------------------------------------|


   |-------3------|      |------3------|      
   E   E   Q      Q      Q      Q      Q      
--20b--L--20b----20b----20b----20b----20b----|
---------------------------------------------|
---------------------------------------------|
---------------------------------------------|
---------------------------------------------|
---------------------------------------------|


   |----3---|                           
   E    E   E   E   S  S  E   E  E  E   
--20b--20--17---------17-20\-----3-----|
---------------20--20----20\-----3--3--|
---------------------------------------|
---------------------------------------|
---------------------------------------|
---------------------------------------|


  |--3-| |3|  |---3--|  |--3--|  |---3--|                 |---3--|          
  E    S S E  E  E   E  E  E  E  E  E   E     Q     Q     E  E   E  E  E    
------------------------3-----3------------|--------------6--8b--L--8--6b--|
---------------------3-----3-----3--6s--7--|--8~----8~---------------------|
--5br--L-3----5--5b------------------------|-------------------------------|
-----------5-------------------------------|-------------------------------|
-------------------------------------------|-------------------------------|
-------------------------------------------|-------------------------------|


   |--3-|                             |-3|            3  3   3  3          
   E    Q    Q     Q      E    E      E  S  E  E  E   S  E.  S  S E   E    
---8b---L---------(3)----(3)--(3)--|--0--8b-L--8--6b--8b-L---8p-6---------|
--(8)b--L----------5------5----5---|--0---------------------------8~--8~--|
-------------------4------4----4---|--0-----------------------------------|
-------------------5------5----5---|--0-----------------------------------|
-----------------------------------|--------------------------------------|
-----------------------------------|--------------------------------------|


               |----3---|            |-3|           |---3--|  |--3-|    
  E   E  E  E  Q      S S E   E      E  Q     E  E  E  E   E  Q    E    
--6b--L--------8br----L-L---------|--6--8b----8--6--L--8b--L--8----6b--|
--------------------------8~--8~--|--------------------8b--L--8----6b--|
----------------------------------|------------------------------------|
------x--x------------------------|------------------------------------|
------x--x--5---------------------|------------------------------------|
------x--x--5---------------------|------------------------------------|


  |---3--|         3  3   3                                                     
  E  E   E  E  E   S  E.  E   E   E      S S  S  S S S  S S  S S S S S  S S  S  
--L--8b--L--8--6b--8b-L---6b----------|--6---------3-------------3-------------|
--L--8b--L--8--6b--8b-L---6b--8~--8~--|----8p-6s-3---6p-3------3---3-6p-3------|
--------------------------------------|-------------------5b-L------------5b-L-|
--------------------------------------|----------------------------------------|
--------------------------------------|----------------------------------------|
--------------------------------------|----------------------------------------|


  |---3---|  |---3--|  |---3--|  |---3--|   
  S  S E  E  E   E  E  E   E  E  E   E  E   
--------------------3------3--3------3--3--|
-----------------3-----6b--3--3--6b--3--3--|
--5p-3----3--5b----------------------------|
-------5-----------------------------------|
-------------------------------------------|
-------------------------------------------|


  |---3--|  |----3---|  |----3---|  |-3|  |3|   
  E   E  E  E    E   E  S   S E  E  E  S  S E   
--6b--3--3------(3)--3----------------------6--|
--6b--3--3-------3---3-------------------------|
------------5b----------5br-L-3-----3--5s-7----|
---------------------------------5-------------|
-----------------------------------------------|
-----------------------------------------------|


    |--3--|  |--3--|  |---3---|            
    E  E  E  E  E  E  S  S E  E  E    E    
-------6----------------------------------|
-------------------------------------(3)--|
--5g7-----7--5--3-----3h-4------------4---|
-------------------5-------5--------------|
------------------------------5--5~-------|
------------------------------------------|


  |---3--|  |---3--|  |---3--|  |----3---|   
  E   E  E  E  E   E  E  E   E  E    E   E   
---------3--L---------3-------------(3)--3--|
------3--3--L--6b--L--3--6p--3-------3---3--|
--5b----------------------------5b----------|
--------------------------------------------|
--------------------------------------------|
--------------------------------------------|


  S   S S S   E   E  E  E  E    E     E  E  E  E  E  E  E  E   
---------------------5-----5----3--|-----x-----x-----x-----x--|
---------------------5-----5----5--|-----x-----x-----x-----x--|
--5br-L-3---3g4~-----5-----5--3g4--|-----x-----x-----x-----x--|
----------5------------------------|--5--x--x--x--x--x--x--x--|
------------------5-----5----------|--------x-----x-----x-----|
-----------------------------------|--------x-----x-----x-----|


                                                    v   
  E  E  E   E   E   E   E  E     E  E  Q    Q    E  E   
-----0--3--(0)--3--(0)--2--3--|--L------------------x--|
-----0--5---0---5---0---4--5--|--L------------------x--|
-----0--4---0---4---0---3--4--|--L------------------x--|
--x--0--5---0---5---0---4--5--|--L------------------x--|
--x---------------------------|------------------------|
--x---------------------------|------------------------|


  E  E  E  E  E  E  E  E     E  E   E  E  E  E  E  E   
--x--0--3--0--3--0--2--3--|--L--L/-----x-----x-----x--|
--x--0--5--0--5--0--4--5--|--L--L/-----x-----x-----x--|
--x--0--4--0--4--0--3--4--|--L--L/-----x-----x-----x--|
--x--0--5--0--5--0--4--5--|--L--L/-----x-----x-----x--|
--------------------------|---------------------------|
--------------------------|---------------------------|


  E  E  E  E  E  E  E  E     E  E  E  E  E  E  E  E   
-----0--3-----3-----2--3--|--L--3--------------------|
-----0--3-----3-----2--3--|--L--3-----3-----3-----3--|
-----0--3--0--3--0--2--3--|--L--3-----3-----3-----3--|
-----0--2--0--2--0--1--2--|--L--2-----2-----2-----2--|
--x-----3--0--3--0--2--3--|--L--------3-----3-----3--|
--x-----------------------|--------------------------|


  E  E  E  E  E  E  E  E     E  E  E  E  E  E  E  E   
--------3-----3-----2--3--|--L--x-----x-----x-----x--|
--------5-----5-----4--5--|--L--x-----x-----x-----x--|
-----0--4--0--4--0--3--4--|--L--x-----x-----x-----x--|
-----0--5--0--5--0--4--5--|--L--x-----x-----x-----x--|
-----0-----0-----0--------|--------------------------|
--------------------------|--------------------------|


  E  E  E  E  E  E  E  E      E  E  E  E  E  E  E  E   
--------5-----5-----4--3~--|--L--3-----3-----3-----3--|
-----0--5-----5-----4--3~--|--L--3-----3-----3-----3--|
-----0--5--0--5--0--4--3~--|--L--3-----3-----3-----3--|
-----0--4--0--4--0--3--2~--|--L--2--x--2--x--2--x--2--|
-----0--5--0--5--0--4--3~--|--L-----x-----x-----x-----|
---------------------------|--------x-----x-----x-----|


  E  E  E  E  E   E   E   E      E  E  E  E  E  E  E  E   
-----0--3-----3--(0)--2--(0)--|--3--0-----0-----0-----0--|
-----0--5-----5---0---4---0---|--5--0-----0-----0-----0--|
-----0--4-----4---0---3---0---|--4--0-----0-----0-----0--|
--x--0--5--x--5---0---4---0---|--5--0-----0-----0-----0--|
--x--------x------0-----------|--------------------------|
--x--------x------------------|--------------------------|


  E  E  E  E  E  E  E  E     E  E  E  E  E  E  E  E   
-----0-----0-----0-----0--|--0--x--3--3--L--x--x--0--|
-----0-----0-----0-----0--|--0--x--5--5--L--x--x--0--|
--x--0-----0-----0-----0--|--0--x--4--4--L--x--x--0--|
--x--0-----0-----0-----0--|--0--x--5--5--L--x--x--0--|
--x-----------------------|--------------------------|
--x-----------------------|--------------------------|


  E  E  E  E  E  E  E  E     E  E  E  E  E   E   E   E    
-----0--3--0--3-----2--3--|--L--x-----x------------------|
-----0--5--0--5-----4--5--|--L--x-----x------------------|
-----0--4--0--4--0--3--4--|--L--x-----x------------------|
-----0--5--0--5--0--4--5--|--L--x--x--x-----(0)-----(0)--|
-----------------0--------|--------x---------0-------0---|
--------------------------|--------x---------------------|


  E  E  E   E   E  E  E  E     E  E  E  E  E  E  E  E   
--------3-------3--x--2--3--|--L--x-----x-----x-----x--|
--------3-------3--x--2--3--|--L--x-----x-----x-----x--|
--------3-------3--x--2--3--|--L--x-----x-----x-----x--|
--------2--(0)--2--x--1--2--|--L--x-----x-----x-----x--|
-----0--3---0---3--x--2--3--|--L--x-----x-----x-----x--|
----------------------------|--------------------------|


  E  E  E   E   E   E   E  E     E  E  E  E  E  E  E  E   
--x-----3-------3-------2--3--|--L--0-----x-----x-----x--|
--x-----5-------5-------4--5--|--L--0-----x-----x-----x--|
--x--0--4--(0)--4--(0)--3--4--|--L--0-----x-----x-----x--|
--x--0--5---0---5---0---4--5--|--L--0-----x-----x-----x--|
--x--0------0-------0---------|--------------------------|
------------------------------|--------------------------|


  E   E   E  E  E  E  E  E      E  E  E  E  E  E  E  E   
-----(0)--5-----5-----4--3~--|--L-----x-----x-----x-----|
------0---5-----5-----4--3~--|--L-----x--x--x--x--x--x--|
------0---5-----5-----4--3~--|--L--0--x-----x-----x-----|
--x---0---4-----4--0--3--2~--|--L--------x-----x-----x--|
--x-------5--5--5--0--4--3~--|-----------x-----x-----x--|
--x----------5---------------|--------------------------|


        |---3--|                                             
  E  E  E   E  E  E   E   E  E     E   Q     E  E  E  E  E   
--------5b--L-----5--(3)--------|---------------------------|
-----0--5b--L--3--5---3---------|------------0--5--3--------|
--x--0--5b--L--3--5---4---------|-----17\----0--5--3--------|
--x--0--------------------5--3--|--5---------0--------5--3--|
--x-----------------------------|---------------------x--x--|
--x-----------------------------|---------------------3--3--|


  E.  S E  E  E  S  S E  E     E  S  S S S E  E  S S E  S S  
----------------------------|-------------------------------|
-----------------3b-L-------|-------------------------------|
------3----------3b-L-------|-------------------------------|
--5-----5--3--5-------5--3--|--5--------------3--3-3-5--5---|
--x-------------------------|-----3h-5-L-5-5------------x---|
--3-------------------------|---------------------------3-3-|


  E.   S E  E  E  S  S E  E     E  S   S  E  E  S   S S S E  E   
--3b---3---------------------|-----3s--x/-----------------------|
--3b---3----------3b-L-------|-----3s--x/-------5br-L-L-3-------|
--3b---3----------3b-L-------|-----3---------0--5br-L-L-3-------|
---------5--3--5-------5--3--|--5------------4------------5--5--|
-----------------------------|----------------------------------|
-----------------------------|----------------------------------|


  tr                                                 
  W                      E  E  S S E  E  S S E  S S  
----------------------|-----------------------------|
----------------------|-----------------------------|
--5(3)----------------|--L--------------------------|
----------------------|---------------3--3-3-5--5-5-|
----------------------|-----5--L-5-5------------x-x-|
----------------------|-------------------------3-3-|


  E.   S E  E  E  S  S E  E     E  E  E  E   E  E    E  E   
-----------------------------|-----------------------------|
--3b---3----------3b-L-------|------------------6----------|
--3b--------------3b-L-------|--------3--5s--7-----7g5--3--|
---------5--3--5-------5--3--|--5--5-----------------------|
-----------------------------|-----------------------------|
-----------------------------|-----------------------------|


  S  S E   E.  S E    E  S E.     E.   S  E  E  S  S E  E  E   
---------------x-x-------------|------------------------3-----|
-------6~--L---x-x--5g6--L-5---|--4~---x~-------5p-3----3-----|
--5s-7---------x-x--6g7--L-6---|--5~---x~-x-----5p-3----3-----|
-------------------------------|----------x--5-------5-----3--|
-------------------------------|----------x-------------------|
-------------------------------|------------------------------|


  tr                                                      
  E.      S  E  S  S S S E  E  E     E  E  Q    H         
----------------------------------|----------------------|
----------------------------------|----------------------|
---------(x)-x--------------------|----------------------|
--5(3)----x--x--------------------|----------------------|
----------------3h-5-5-5-5--3--3--|--1-------------------|
----------x--x--------------------|----------------------|


  E.  S E  E  E  S  S E  E     E  E  Q    H         
------x-x-------------------|----------------------|
------x-x--------3b-L-------|----------------------|
--------x--------3b-L-------|----------------------|
-----------3--5-------5--3--|--5-------------------|
----------------------------|----------------------|
----------------------------|----------------------|


  Q    E  E   E  S  S E  E     E  E  Q    H         
----------------------------|----------------------|
-----------------3b-L-------|----------------------|
-----------------3b-L-------|----------------------|
----------3h--5-------5--3--|--5-------------------|
----------------------------|----------------------|
----------------------------|----------------------|


  E.  S E  S  S E  E  E  E     E  E  Q    H           Q    E  E  E  S  S E  E   
------x-x----------3-----3--|--3-------------------|---------------------------|
------x-x--3s-4-L--4--4--4--|--4-------------------|----------------3b-L-------|
--------x--4s-5-L-----5-----|--5-------------------|----------------3b-L-------|
----------------------------|----------------------|----------3--5-------5--3--|
----------------------------|----------------------|---------------------------|
----------------------------|----------------------|---------------------------|


  E  E  Q    H           Q    E    E  E  E  E  E      E  E  Q    H         
----------------------|------------------5--4--4s--|--3-------------------|
----------------------|------------------6--5--5s--|--4-------------------|
----------------------|----------3g7--L-----6--6s--|--5-------------------|
--5-------------------|----------------------------|----------------------|
----------------------|----------------------------|----------------------|
----------------------|----------------------------|----------------------|


  Q    E  E   E  S  S E  E     E  E  Q    H           Q    E  E  E  S  S E  E   
----------------------------|----------------------|---------------------------|
-----------------3b-L-------|----------------------|----------------3b-L-------|
-----------------3b-L-------|----------------------|----------------3b-L-------|
----------3h--5-------5--3--|--5-------------------|----------3--5-------5--3--|
----------------------------|----------------------|---------------------------|
----------------------------|----------------------|---------------------------|


                                                       tr                     
  E  E  Q    H           E.  S E  E   E  S  S E  E     Q       Q    H         
----------------------|------x-x--------------------|------------------------|
----------------------|------x-x---------3b-L-------|------------------------|
----------------------|--------x---------3b-L-------|------------------------|
--5-------------------|-----------3h--5-------5--3--|--5(3)------------------|
----------------------|-----------------------------|------------------------|
----------------------|-----------------------------|------------------------|


  Q    E    E  E  E   E    E       Q     Q    H         
------------------3~------------|--3~------------------|
------------------4~------------|--4~------------------|
----------3g5--L------5~--(5)~--|--5~------------------|
--------------------------------|----------------------|
--------------------------------|----------------------|
--------------------------------|----------------------|


      |-3-|                                             
  E.  T T T Q     E  S  S E  E     E  E  Q    H         
------x-------------------------|----------------------|
--------x------------3b-L-------|----------------------|
----------x----------3b-L-------|----------------------|
------------3h----5-------5--3--|--5-------------------|
--------------------------------|----------------------|
--------------------------------|----------------------|


  E.  S  E  E  E  E   E  E      E  E  Q    H         
------------5--L--5s--4--4s--|--3-------------------|
--------/6--6--L--6s--5--5s--|--4-------------------|
------0-/7--------7s--6--6s--|--5-------------------|
------0----------------------|----------------------|
-----------------------------|----------------------|
-----------------------------|----------------------|


     |-3-| |--3-|  |--3-|   |--3-|     |---3--|  |---3--|  |---3--|  |---3--|   
  E  S S S Q    E  Q    E   Q    E     E   E  E  E   E  E  E   E  E  E   E  E   
-----------x------------------------|---------3---------3---------3---------3--|
---------x--------------3b----------|------3---------3---------3---------3-----|
-------x----------------3b----------|--5b--------5b--------5b--------5b--------|
-----x----------3--5--------5----3--|------------------------------------------|
------------------------------------|------------------------------------------|
------------------------------------|------------------------------------------|


                                         |---3---|   |---3--|     
  Q.       E  E  E  E  E     E  E  E  E  E   E   E   E   E  E     
-----------0--3--0--3--3--|--L--3--3--3---------(3)--------------|
--6b~------0--5--0--5--5--|--L--3--3--3--6b--L---3---6b--L--6b~--|
-----------0--4--0--4--4--|--L-----------------------------------|
--------------5--0--5--5--|--L-----------------------------------|
--------------------------|--------------------------------------|
--------------------------|--------------------------------------|


                               |-3|            |---3---|   |---3---|     
  E  E  E   E   E  E  E  E     E  Q    E   E   E   E   E   E    E  E     
-----0----------3--0--3--3--|--L--3----3--(3)---------(3)---------------|
--L--0----------5--0--5--5--|--L--3----3---3---6b--L---3---6pb--L--6b~--|
-----0----------4--0--4--4--|--L----------------------------------------|
-----------(0)--5--0--5--5--|--L----------------------------------------|
------------0---------------|-------------------------------------------|
--------3-------------------|-------------------------------------------|


                             3  3    |3|  |---3--|  |---3--|  3  3   
  E  E  E  E  E  E  E  E     E  E.   S E  E  E   E  E  E   E  E  E   
--------------3--x--3--3--|--L------------3---------3---------------|
--L-----------5--x--5--5--|--L---------3-----3h--6--3---------------|
-----0--------3--x--3--3--|--L--5b---L-----------------5b--L--5-----|
-----0--------------------|--------------------------------------5--|
-----------0--------------|-----------------------------------------|
--------3-----------------|-----------------------------------------|


  tr                                         
             |---3--|  |---3--|  |-3|  |3|   
  E      E   E   E  E  E  E   E  E  S  S E   
--------(3)---------3--3---------3-------3--|
---------3-------3-----3--6b--L--3--6b-L-3--|
--4(3)---3---5b-----------------------------|
--------------------------------------------|
--------------------------------------------|
--------------------------------------------|


  |---3--|  |---3--|  |---3--|  |---3--|   
  E   E  E  E   E  E  E   E  E  E   E  E   
------3--3------3--3------3--3------3--3--|
--6b--3--3--6b--3--3--6b--3--3--6b--3--3--|
------------------------------------------|
------------------------------------------|
------------------------------------------|
------------------------------------------|


          |--3--|      |--3--|  |---3---|      |---3--|               |-3|      
    E  E  S  S  S S  S E  E  E  E   E   E      E  E   E  E  E   E  E  E  Q      
--3g5--5--3h-5p-3------3-----3-----
Добавлено: 03.06.2012
Другие материалы по этой песне:

Страница создана 21.04.2012
http://primanota.ru/stevie-ray-vaughan/all-your-love-i-miss-loving-chords.htm
Привет, Гость.
Предлагаем пройти революционный курс по гитаре.
Подарок от PrimaNota.Ru, забирай!