PrimaNota.ru - самый крупный в мире бесплатный архив песенных текстов, аккордов, табулатур и нот


Stevie Klasson - If I Do - таба, видео

Регистрация Запомнить меня
Войти через:  Facebook Google Twitter Vk Yandex Mail.ru

Stevie Klasson - If I Do - таба, видео

Печатать
Просмотров: 95
Уроки эстрадного вокала в Санкт-Петербурге
-------------------------------------------------------------------------------
                             If I Do - Stevie Klasson
-------------------------------------------------------------------------------

Tabbed by:
Dan Mendes



Intro:

e|---------------------------------------------------------------------------|
B|--------------------10-10---------------------------------------------10---|
G|--------------------X--X----------------------------6----------------------|
D|-----------------11-11-11---------------7-7-9-7-7-9-7-----------------11---|
A|----7-7-------7--9--9--9-----7-7-9-7-7--5-5-5-5-5-5-0----7-7-------7--9----|
E|----5-5-5--7/9---------------5-5-5-5-5--------------5----5-5-5--7/9--------|

e|-----9---------------------------------------------------------------------|
B|-10--10--------------------------------------------------------------------|
G|-X---X---------------------------------------------------------------------|
D|-11--11---------------7-7-7-9-9-9------------------------------------------|
A|-9---9-----7-7-9-X-7--5-5-5-7-7-7--7---------------------------------------|
E|-----------5-5-5-X-5---------------5---------------------------------------|
 








************************************

| /   slide up
| \   slide down
| h   hammer-on
| p   pull-off
| ~   vibrato
| +   harmonic
| x   Mute note
| b   Bend
| pb  Pre-bend
| br  Bend release
| pbr Pre-bend release
| brb Bend release bend

************************************
Добавлено: 26.12.2015
Вам также может быть интересно:
Другие материалы по этой песне:
  • Аккорды и текст

Страница создана 26.12.2015
http://primanota.ru/stevie-klasson/if-i-do-chords.htm
Привет, Гость.
Предлагаем пройти революционный курс по гитаре.
Подарок от PrimaNota.Ru, забирай!