PrimaNota.ru - самый крупный в мире бесплатный архив песенных текстов, аккордов, табулатур и нот


Stevie Klasson - Hoodoo Cadillac - таба, видео

Регистрация Запомнить меня
Войти через:  Facebook Google Twitter Vk Yandex Mail.ru

Stevie Klasson - Hoodoo Cadillac - таба, видео

Печатать
Просмотров: 72
Уроки эстрадного вокала в Санкт-Петербурге
-------------------------------------------------------------------------------
                             HOODOO CADILLAC - STEVE KLASSON
-------------------------------------------------------------------------------



Tuning:STANDARD

intro guitar 1

    E        C     G                 E     C     G
e|---------------------------------------------------------------------------|
B|-------------------------------------------------0-1-0---------------------|
G|--0----------0--0-2-0-0-------------------0------0-0-0---------------------|
D|---2--------2----0---4---4/2p0-----------2---------------------------------|
A|----2----0h3--------------------------0h3----------------------------------|
E|-----0------------------------3-2-0----------0h3---------------------------|



verse guitar 1

      A     C           G                            A        C
e|---------------------------------------------------------------------------|
B|-------------------------------1-0-1-0-------------------------------------|
G|----2----------0---0--------0--0-0-0-0---0h2p0-----2-2-----------0----0----|
D|----2----------------------------------------------2-2--2-2----------------|
A|----0---0-3-----3------0h2-------------------------0-0--0-0--3--3--3-------|
E|-----------------------0h3-------------------------------------------------|

  G
e|-----------------------------------------------------------------------------|
B|-0--1-0------------------------1-0-1-0-0------------0---1-0----0-------------|
G|-0--0-0---2----------------0---0-0-0-0-0------------0---0-0----0-0-----------|
D|----------2--2-2-------------------------------------------------------------|
A|2---------0--0-0--3---0h2-----------------0---3------------------------------|
E|3---------------------0h3--------------------------3-------------------------|

verse guitar 2
e|-----------------------------------3----------------------------------------|
B|----------------------------1-----------3~-3~---3pb-3-3------------1--------|
G|--2-----------0~-0-0-0--2~--0----/4-----4~-4~---4pb-2-2------2~----0---0----|
D|--2--------------------------------------------------4-4p2------------------|
A|--0--3~----------------0-----------------------------------0----------------|
E|----------0h3---3-3-3-3-----------------------------------------------3-----|

e|---------------------------------------------------------------------------|
B|-----------------1---------------------------------------------------------|
G|-0-2-4b-2-0------0---------------------------------------------------------|
D|--------------2------------------------------------------------------------|
A|------------0-0-------2-2-2-2-2--------------------------------------------|
E|--------------------3-3-3-3-3-3--------------------------------------------|


chorus guitar 1

    D          C                A  C           G
e|----------------------------------------------------------------------------|
B|--3-3-----3-----------1--------------------------0-1-0----------------------|
G|--2-2-0h2-2----0------0------------0-0-----------0-0-0----------------------|
D|--0-0-----0----2--0h2-2-----------2-2---------------------------------------|
A|-------------3-3----------3-2-0---3-3------0h2------------------------------|
E|-------------------------------------------0h3------------------------------|

chorus guitar 2
e|----------------------------------------------------------------------------|
B|--3-3-----3-3-----1-----1---------------------------------------------------|
G|--2-2---0h2-2--0-----------------5-----5-5----------0--------0--------------|
D|--0-0----------2---0h2-----------7b--5-5-5----------0-----0-2---------------|
A|---------------3-----------3-2-0-------3-3-3/2-0-------0h2------------------|
E|------------------------------------------------4-3-------------------------|

verse guitar 2 after chorus 
e|---------------------------------------------------------7~---5----3-------|
B|----------/3~--3/1p0------------------0------------------------------------|
G|---2---0--/4~--4/2p0------2-----------0------2----5---/7~-----5----4-------|
D|---2---2-------------2p0--2-----------0------2----5------------------------|
A|---0---3------------------0--3~---2----------0----3------------------------|
E|------------------------------------3--------------------------------------|

e|----------------7----7------7---/5---------3-------------------------------|
B|--------1------------------------------------------------------------------|
G|----2---0---5/7---5/7---5/7----/5------3/4---------------------------------|
D|----2---2------------------------------------------------------------------|
A|----0---3------------------------------------------------------------------|
E|---------------------------------------------------------------------------|

solo
e|-----12---12---12----10---10----12brb--------------------------------------|
B|-------12---12----12---10---10---------10rb---10-8-10b-10-8-8~---8-----8~--|
G|-------------------------------------------------------------------9-7-----|
D|---------------------------------------------------------------------------|
A|---------------------------------------------------------------------------|
E|---------------------------------------------------------------------------|

e|---------------------------------------------------------------------------|
B|---------------------------------------------------------------------------|
G|---2bp0--2bp0---2b0--2b0----2br----2-4pb-2-2p0-----------------------------|
D|-------2-----2-----2----2----------------------2---------0--0h2------------|
A|-----------------------------------------------------0-2---2---------------|
E|---------------------------------------------------------------0---0-0-0---|

e|-12--------14----14br~-----------------------------------------------------|
B|---12--------14------------------------------------------------------------|
G|-----12--------(12)--------------------------------------------------------|
D|---------------------------------------------------------------------------|
A|---------------------------------------------------------------------------|
E|---------------------------------------------------------------------------|



************************************

| /   slide up
| \   slide down
| h   hammer-on
| p   pull-off
| ~   vibrato
|()   harmonic
| x   Mute note
| b   Bend
| pb  Pre-bend
| br  Bend release
| pbr Pre-bend release
| brb Bend release bend

************************************

Добавлено: 26.12.2015
Вам также может быть интересно:
Другие материалы по этой песне:
  • Аккорды и текст

Страница создана 26.12.2015
http://primanota.ru/stevie-klasson/hoodoo-cadillac-chords.htm
Привет, Гость.
Предлагаем пройти революционный курс по гитаре.
Подарок от PrimaNota.Ru, забирай!