PrimaNota.ru - самый крупный в мире бесплатный архив песенных текстов, аккордов, табулатур и нот


Steven Wilson - Perfect Life - таба, видео

Регистрация Запомнить меня
Войти через:  Facebook Google Twitter Vk Yandex Mail.ru

Steven Wilson - Perfect Life - таба, видео

Печатать
Просмотров: 97
-------------------------------------------------------------------------------
                             Perfect Life - Steven Wilson
-------------------------------------------------------------------------------


Tuning: eBGDAE

e|----------15----------15----------15----------15-----------|
B|----13----------13----------13----------13-----------------|
G|-12----12----12----12----12----12----12----12--------------|
D|-----------------------------------------------------------|
A|-----------------------------------------------------------|
E|-----------------------------------------------------------|

e|----------14----------14----------14----------14-----------|
B|----15----------15----------15----------15-----------------|
G|-14----14----14----14----14----14----14----14--------------|
D|-----------------------------------------------------------|
A|-----------------------------------------------------------|
E|-----------------------------------------------------------|

e|----------14----------14----------14----------14-----------|
B|----15----------15----------15----------15-----------------|
G|-12----12----12----12----12----12----12----12--------------|
D|-----------------------------------------------------------|
A|-----------------------------------------------------------|
E|-----------------------------------------------------------|

e|----------15----------15----------15----------15-----------|
B|----13----------13----------13----------13-----------------|
G|-12----12----12----12----12----12----12----12--------------|
D|-----------------------------------------------------------|
A|-----------------------------------------------------------|
E|-----------------------------------------------------------|

e|----------15----------15----------15----------15-----------|
B|----13----------13----------13----------13-----------------|
G|-14----14----14----14----14----14----14----14--------------|
D|-----------------------------------------------------------|
A|-----------------------------------------------------------|
E|-----------------------------------------------------------|

e|----------14----------14----------14----------14-----------|
B|----15----------15----------15----------15-----------------|
G|-14----14----14----14----14----14----14----14--------------|
D|-----------------------------------------------------------|
A|-----------------------------------------------------------|
E|-----------------------------------------------------------|

e|----------14----------14----------14----------14-----------|
B|----15----------15----------15----------15-----------------|
G|-12----12----12----12----12----12----12----12--------------|
D|-----------------------------------------------------------|
A|-----------------------------------------------------------|
E|-----------------------------------------------------------|

e|----------15----------15----------15----------15-----------|
B|----13----------13----------13----------13-----------------|
G|-12----12----12----12----12----12----12----12--------------|
D|-----------------------------------------------------------|
A|-----------------------------------------------------------|
E|-----------------------------------------------------------|
Добавлено: 24.10.2015
Другие материалы по этой песне:
  • Аккорды и текст

Страница создана 24.10.2015
http://primanota.ru/steven-wilson/perfect-life-chords.htm
Привет, Гость.
Предлагаем пройти революционный курс по гитаре.
Подарок от PrimaNota.Ru, забирай!