PrimaNota.ru - самый крупный в мире бесплатный архив песенных текстов, аккордов, табулатур и нот


Steven Wilson - Insurgentes - таба, видео

Регистрация Запомнить меня
Войти через:  Facebook Google Twitter Vk Yandex Mail.ru

Steven Wilson - Insurgentes - таба, видео

Печатать
Просмотров: 125
Авторы: Steven Wilson

Steven Wilson - Insurgentes
Chords

This Tab was made by Rjjena

Chords:
A5    x 0 x 2 x 0
Em    0 x 2 0 X 0
D     x 5 4 2 3 x
A5*   x 0 2 2 5 5
Em*   0 2 2 0 0 3
D*    X 5 4 2 3 2


A5  Em   D  D
A5  Em   D  D

A5    Em           D
Holy Mother of the simple one,
A5       Em              D
When you smile at me you bring me down,
A5*     Em*     D*
You betray your thoughts.
A5*      Em*        D*
All your prayers to naught.

A5      Em           D
Now out of debt, you speak in tongues,
A5      Em            D
And out of bread, your work is done,
A5*      Em*      D*
And your dream, absolve.
A5*      Em*        D*
And your path, dissolve.


Guitar Solo:
e:|-------------3--------------------------------------|
B:|---------3-5---5-------------5----------------------|
G:|---2-4-5-----------5---5-4-5-----4--4-2-4-5-4-------|
D:|-2--------------------------------------------5-----|
A:|------------------------------------------------5---|
E:|----------------------------------------------------|

e:|-------------3-3-------------3----------------------|
B:|---------3-5----------------------------------------|
G:|---2-4-5-----------5---5-4-5-----4--4-2-4-5-4-------|
D:|-2--------------------------------------------5-----|
A:|------------------------------------------------5---|
E:|----------------------------------------------------|


A5*      Em*      D*
And your dream, absolve,
A5*      Em*      D*
And your path, dissolve.

Guitar Solo 2:
e:|----------------------------------------------------|
B:|----------------------------------------------------|
G:|----------------------------------------------------|
D:|---------0------------------------------0-----2-3---|
A:|-------0---2-3------------------------0---2-3-------|
E:|-0-1~----------0-1~------------0-1~-----------------|

e:|-----------------------------------------------------------|
B:|-------------3------------------------------------3--------|
G:|-------2-4-5---5-4--------5-4-------5-4-------5-4---4------|
D:|---2-5-------------5--0-2-----5---2------5-0-2---------5---|
A:|-0------------------------------5-----------------------5--|
E:|-----------------------------------------------------------|

e:|----------------------------------------------------|
B:|---------------------------------------3------------|
G:|-5-4--------5-4--------5-4---------5-4---4----------|
D:|-----5--0-2-----5----2-----5---0-2---------5---2----|
A:|------------------5----------5---------------5---0--|
E:|----------------------------------------------------|

e:|-------------3--------------------------------------|
B:|---------3-5---5-------------5----------------------|
G:|---2-4-5-----------5---5-4-5-----4--4-2-4-5-4-------|
D:|-2--------------------------------------------5-----|
A:|------------------------------------------------5---|
E:|----------------------------------------------------|

e:|-------------3-3-------------3----------------------|
B:|---------3-5----------------------------------------|
G:|---2-4-5-----------5---5-4-5-----4--4-2-4-5-4-------|
D:|-2--------------------------------------------5-----|
A:|------------------------------------------------5---|
E:|----------------------------------------------------|

e:|-3--------------------------------------------------|
B:|---5-------5----------------------------------------|
G:|-----5-4-5----repeat-this-last-line-----------------|
D:|--------------seven-times-while --------------------|
A:|--------------fading-out----------------------------|
E:|----------------------------------------------------|
Добавлено: 16.11.2013
Другие материалы по этой песне:
  • Аккорды и текст

Страница создана 16.11.2013
http://primanota.ru/steven-wilson/insurgentes-chords.htm
Привет, Гость.
Предлагаем пройти революционный курс по гитаре.
Подарок от PrimaNota.Ru, забирай!