PrimaNota.ru - самый крупный в мире бесплатный архив песенных текстов, аккордов, табулатур и нот


Steven Wilson - Home Invasion - таба, видео

Регистрация Запомнить меня
Войти через:  Facebook Google Twitter Vk Yandex Mail.ru

Steven Wilson - Home Invasion - таба, видео

Печатать
Просмотров: 134
-------------------------------------------------------------------------------
                             Home Invasion - Steven Wilson 
-------------------------------------------------------------------------------
Tabbed by: David Benítez
E-mail: debml700@gmail.com

Tuning: Standard (EADGBe)

Any comments or suggestions in below! Don't forget to rate, and have fun! ;)

Intro
e||---------------------------------------------|
B||---------------------------------------------|
G||---------------------------------------------|
D||---------------------------------------------|
A||---------------------------------------------|
E||-0-0--0-0--0-0-0-0--0--0--0-0--0000--0000----|

e|--------------------------------------------||
B|--------------------------------------------||
G|--------------------------------------------||
D|--------------------------------------------|| x2
A|--------------------------------------------||
E|-0-0--0-0--0-0-0-0--0--0--0---0-0-0--0-0----||

e||---------------------------------------------|
B||---------------------------------------------|
G||---------------------------------------------|
D||---------------------------------------------|
A||---------------------------------------------|
E||-0-0--0-0--0-0-0-0--0--0--0-0--0000--0000----|

e|--------------------------------------------|
B|--------------------------------------------|
G|--------------------------------------------|
D|--------------------------------------------|
A|--------------------------------------------|
E|-0-0--0-0--0-0-0-0--0--0--0---0-0-0--0-0----|

e|---------------------------------------------|
B|---------------------------------------------|
G|---------------------------------------------|
D|---------------------------------------------|
A|---------------------------------------------|
E|-3-3--3-3--3-3-3-3--3--3--3-3--3333--3333----|

e|--------------------------------------------||
B|--------------------------------------------||
G|--------------------------------------------||
D|--------------------------------------------|| x2
A|--------------------------------------------||
E|-3-3--3-3--3-3-3-3--3--3--3---3-3-3--3-3----||

e|---------------------------------|
B|---------------------------------|
G|---------------------------------|
D|-----------------0-2-3-2---------|
A|-----1---1-----1-----------------|
E|-0h1---1---1-0--------------0----|




Things get pretty hard to hear around the second half, so probably sorry lol
e|-0------------------------------------------------------------------|
B|--3------------------------------0--------6-------11b12-------------|
G|-------3---4---1---0-------------3b4r3----9b10-----------12---------|
D|-------------------------------------------------------------12-----|
A|-----------------------2----1---------------------------------------|
E|--------------------------------------------------------------------|

e|------------------------------------------21----|
B|------------------------------------------------|
G|-9--------(12)--------(10-\7)-------------------|
D|---------------------------------8--------------|
A|------------------------------------------------|
E|------------------------------------------------|

Solo
e||-----------------------------------------------------------0----|
B||-----8--/12--11--8-------------------8b9------9------12---------|
G||-/9----------------9-9---7h9-----7h9------7h9----7h9------------|
D||-----------------------------9----------------------------------|
A||----------------------------------------------------------------|
E||----------------------------------------------------------------|

e|-3-0-0-5-0-0-7-0-0-10-0-0-12-12-----------------------------------------|
B|-----------------------------------------------------------------6-6----|
G|----------------------------------7-9------7----7h10--7-5-7--5h7--------|
D|--------------------------------------9-8----9--------------------------|
A|------------------------------------------------------------------------|
E|------------------------------------------------------------------------|

e|--------------------------6p5--------------||
B|------------------8-8\--------6------------||
G|-7h10--7-5-7--5h7---------------5-3-2------||
D|--------------------------------------3----|| x2
A|-------------------------------------------||
E|-------------------------------------------||

e|---------------------------------|
B|---------------------------------|
G|---------------------------------|
D|-----------------0-2-3-2---------|
A|-----1---1-----1-----------------|
E|-0h1---1---1-0--------------0----|



Pre Chorus
e||---------------------------------||
B||-----2-2-0-2----10--8----7--5----||
G||-----2-2-2-2----10-10----7--5----||
D||-----2-2-2-2----10-10----7--5----|| x3
A||-0-------------------------------||
E||---------------------------------||

e|-----------------------------|
B|----2-2-0-2----10--8----7----|
G|----2-2-2-2----10-10----7----|
D|----2-2-2-2----10-10----7----|
A|-0---------------------------|
E|-----------------------------|


Chorus
e||-4--------3--------2--------0----||
B||-2--------3--------3--------3----||
G||-2--------0--------2--------0----||
D||-2--------2--------0--------2----|| x2
A||-0--------3-----------------3----||
E||------------------(3)------------||

I honestly think it sounds better on the higher strings, 
but you couldn't get that nice vibrato at the end,
so I play it like the second form :)
e|----------------|----------------|
B|----------------|----------------|
G|----------------|-1----1---------|
D|-6----6----5----|-2----1----5----|
A|-7----6----5----|-----------5----|
E|----------------|----------------|

Post-Chorus
e|-------------------------------------------------------------------|
B|-------------------------------------------------------------------|
G|-------------------------------------------------------------------|
D|-------------------------------------------------------------------|
A|------------------------------------------5p2-5/7--------6----5----|
E|-0--------3p0-3/5-3--------5p3-5/7---------------------------------|

e|-------------------------------------------------------------------------------|
B|-------------------------------------------------------------------------------|
G|-------------------------------------------------------------------------------|
D|--------------------------------------------------12p9-12/14-------------------|
A|-7--------10p7-10/12-10--------12p10-12/14--------------------------11---10----|
E|-------------------------------------------------------------------------------|


First bar starts at the end of the last one.
The pattern for the main bar is of course, not exact, it's an approximate to the first rep,
but the second is mostly different; it's a pain to tab those rhythms so... have fun lol
e|----------------||------------------------------------------------------------------|
B|-14----13----12-||------------------------------------------------------------------|
G|-13----13----12-||----x-x-12-12-x-x-x-x-12-x-12h13-x-x-x-x-12qb-x-x-x-x-12-13-12----|
D|-14----13----12-||----x-x-12-12-x-x-x-x-12-x-12h14-x-x-x-x-12qb-x-x-x-x-12-14-12----|
A|----------------||----x-x-------x-x-x-x----x-------x-x-x-x------x-x-x-x-------------|
E|----------------||-0----------------------------------------------------------------|

e|------------------------------------------------------------------||
B|------------------------------------------------14----13----12----||
G|-x-x-x-12-x-12-x-13-x-x-x-13-x-x-x-12-12-13-12--13----13----12----||
D|-x-x-x-12-x-12-x-14-x-x-x-14-x-x-x-12-12-14-12--14----13----12----|| x2
A|-x-x-x----x----x----x-x-x----x-x-x--------------------------------||
E|------------------------------------------------------------------||

Pre Chorus
e||---------------------------------||
B||-----2-2-0-2----10--8----7--5----||
G||-----2-2-2-2----10-10----7--5----||
D||-----2-2-2-2----10-10----7--5----|| x3
A||-0-------------------------------||
E||---------------------------------||

e|-----------------------------|
B|----2-2-0-2----10--8----7----|
G|----2-2-2-2----10-10----7----|
D|----2-2-2-2----10-10----7----|
A|-0---------------------------|
E|-----------------------------|


Chorus
e||-4--------3--------2--------0----||
B||-2--------3--------3--------3----||
G||-2--------0--------2--------0----||
D||-2--------2--------0--------2----|| x4
A||-0--------3-----------------3----||
E||------------------(3)------------||

W/ slide
e||---------------------------------||
B||-9----/12----12\7----\5----5/----||
G||-9----/12----12\7----\5----5/----||
D||---------------------------------|| x4
A||---------------------------------||
E||---------------------------------||

This enters on the third rep; W/ slide
e|------------------------------------------------------------|
B|------------------------------------------------------------|
G|--2/--6----/7--\6--\5--\4----/5--/9--/12--\11----/12--\9----|
D|-x----------------------------------------------------------|
A|------------------------------------------------------------|
E|------------------------------------------------------------|

e|---------------------------------------------------------------------------|
B|-8--/12--/14------/12--/10--/9---/10--\8--\7--\5---/8--\7---\3--/5----\----|
G|---------------------------------------------------------------------------|
D|---------------------------------------------------------------------------|
A|---------------------------------------------------------------------------|
E|---------------------------------------------------------------------------|

Outro
End with this; same comment as before
e|----------------|----------------|
B|----------------|----------------|
G|----------------|-1----1---------|
D|-6----6----5----|-2----1----5----|
A|-7----6----5----|-----------5----|
E|----------------|----------------|


************************************

| /   slide up
| \   slide down
| h   hammer-on
| p   pull-off
| ~   vibrato
| +   harmonic
| x   Mute note
| b   Bend
| pb  Pre-bend
| br  Bend release
| pbr Pre-bend release
| brb Bend release bend

************************************
Добавлено: 19.09.2015
Другие материалы по этой песне:
  • Аккорды и текст

Страница создана 19.09.2015
http://primanota.ru/steven-wilson/home-invasion-chords.htm
Привет, Гость.
Предлагаем пройти революционный курс по гитаре.
Подарок от PrimaNota.Ru, забирай!