PrimaNota.ru - самый крупный в мире бесплатный архив песенных текстов, аккордов, табулатур и нот


Steven Wilson - Four Trees Down - таба, видео

Регистрация Запомнить меня
Войти через:  Facebook Google Twitter Vk Yandex Mail.ru

Steven Wilson - Four Trees Down - таба, видео

Печатать
Просмотров: 79
Уроки эстрадного вокала в Санкт-Петербурге
-------------------------------------------------------------------------------
                            Four Trees Down  - Steven Wilson
-------------------------------------------------------------------------------

Tabbed by: Bobbits

Tuning EADGBe



Guitar 1, 0:00-0:15

e|-------------0-------------0--------------------10--------------10----------|
B|-7-----8-------8-----8-------8------7-----8---------8------8--------8-------|
G|---0-----0-------0-----0-------0------0-----0---------0------0---------0----|  2x
D|----------------------------------------------------------------------------|
A|----------------------------------------------------------------------------|
E|-0---0-----0-------0-----0----------0---0-----0---------0-----0-------------|

Guitar 2

e|----------------------------------------------------------------------------|
B|----------------------------------------------------------------------------|
G|----12------11-12-11----------11h12p11------------------------------11-12---|
D|--------14----------------------------12-------------12-14-14---------------|
A|----------------------------------------12--------14------------------------|
E|----------------------------------------------------------------------------|



Guitar 1, 0:16-1:18. Play through twice.

e|-------------0-------------0--------------------10--------------10---------------|
B|-7-----8-------8-----8-------8------7-----8---------8------8--------8------------|
G|---0-----0-------0-----0-------0------0-----0---------0------0---------0---------|  
D|---------------------------------------------------------------------------------|
A|---------------------------------------------------------------------------------|
E|-0---0-----0-------0-----0----------0---0-----0---------0-----0------------------|

e|-------------0-------------0--------------------10-------------------------------|
B|-7-----8-------8-----8-------8------7-----8----------8-----7----5-----3-----2----|
G|---0-----0-------0-----0-------0------0-----0----------0-----0-----0-----0-----2-|  
D|---------------------------------------------------------------------------------|
A|-----------------------------------------------------7-----5----3-----2-----0----|
E|-0---0-----0-------0-----0----------0---0-----0----------------------------------|

e|---0-------------------------------0-------------0------------------2------------|
B|-----2-----2-------------2---1-------1-----1-------1------1----3------3----3-----|
G|-------2-----2-------2---------2-------2-----2-------2------0----4------4----4---|
D|-----------------2---------------------------------------------------------------|
A|-0-------0-----0---0---0---0-3---3-------3-----3--------3------2---2------2------|
E|---------------------------------------------------------------------------------|

e|---2------------------0-------------------------------------------|
B|-----3-----3----0-------0-----0-----------------------------------|
G|-------4--------1---------1-----1---------------------------------|
D|----------------2-----------2-------------------------------------|
A|-2-------2--------------------------------------------------------|
E|------------------------------------------------------------------|



Guitar 1, 1:20-1:42

e|-------2--------------2---------------1--------------1--------------|
B|-2-------2-----2--------2-----2--1------1-----1--------1------1-----|
G|---2-------2-----2--------2--------2------2-----2--------2------2---| 2x
D|--------------------------------------------------------------------|
A|--------------------------------------------------------------------|
E|-2---2-------2------2-------2----1---1------1------1--------1-------|

e|-------2--------------2----------------------0---------0--0---------|
B|-3-------3------3-------3-----3--------0-------0-------0--0---------|
G|---2-------2------2-------2--------0-----1-------1-----1--1---------|
D|-------------------------------------------------------2--2---------|
A|-2---2-------2------2-------2---------------------------------------|
E|---------------------------------------0---0--------0---------------|



Guitar 1, 1:42-2:23

e|-------------0-------------0--------------------10--------------10----------|
B|-7-----8-------8-----8-------8------7-----8---------8------8--------8-------|
G|---0-----0-------0-----0-------0------0-----0---------0------0---------0----|  5x
D|----------------------------------------------------------------------------|
A|----------------------------------------------------------------------------|
E|-0---0-----0-------0-----0----------0---0-----0---------0-----0-------------|

Guitar 2

e|---------------------------------------------------------------------------|
B|---------------------------------------------------------------------------|
G|---11--12--9-----11-12-11---9---------11-12--9---11-11h12p11---------------|
D|--x-------------x--------------9-----x-----------------------12------------|
A|-x-------------x--------------------x---------------------------12---------|
E|---------------------------------------------------------------------------|
                             8x
e|-------||------------------||----------------------------------------------|
B|-------||----------15------||----------------------------------------------|
G|-------||------------------||----14--14/16---------------------------------|
D|-16-17-||-14-16-17----16-17||----------------------------------------------|
A|-------||------------------||----------------------------------------------|
E|-------||------------------||----------------------------------------------|



Guitar 1, 2:24-2:47

e|-------------0-------------0--------------------10-------------------------------|
B|-7-----8-------8-----8-------8------7-----8----------8-----7----5-----3-----2----|
G|---0-----0-------0-----0-------0------0-----0----------0-----0-----0-----0-----2-|  
D|---------------------------------------------------------------------------------|
A|-----------------------------------------------------7-----5----3-----2-----0----|
E|-0---0-----0-------0-----0----------0---0-----0----------------------------------|

e|---0-------------------------------0-------------0------------------2------------|
B|-----2-----2-------------2---1-------1-----1-------1------1----3------3----3-----|
G|-------2-----2-------2---------2-------2-----2-------2------0----4------4----4---|
D|-----------------2---------------------------------------------------------------|
A|-0-------0-----0---0---0---0-3---3-------3-----3--------3------2---2------2------|
E|---------------------------------------------------------------------------------|

e|---2------------------0-------------------------------------------|
B|-----3-----3----0-------0-----0-----------------------------------|
G|-------4--------1---------1-----1---------------------------------|
D|----------------2-----------2-------------------------------------|
A|-2-------2--------------------------------------------------------|
E|------------------------------------------------------------------|



Guitar 1, 2:48-3:21
                                                                   4x    Ends on 
e|-------2--------------2---------------1--------------1--------------||---2--|
B|-2-------2-----2--------2-----2--1------1-----1--------1------1-----||---2--|
G|---2-------2-----2--------2--------2------2-----2--------2------2---||---2--| 
D|--------------------------------------------------------------------||---4--|
A|--------------------------------------------------------------------||---4--|
E|-2---2-------2------2-------2----1---1------1------1--------1-------||---2--|



Guitar 2

e|---------------------------------------------------------------------|
B|---------10/12-12b13r12p10---12bp10---12---12b13r12p10--12---10------|
G|-11-----11-----------------------------------------------------------|
D|---------------------------------------------------------------------|
A|---------------------------------------------------------------------|
E|---------------------------------------------------------------------|

e|----------------------------------------12--14--14-14--14p13-13p12---|
B|------------------------10-12-14-14----x-----------------------------|
G|-12h14----12----11----11--------------x------------------------------|
D|---------------------------------------------------------------------|
A|---------------------------------------------------------------------|
E|---------------------------------------------------------------------|

e|---------------------------------------------------------------------|
B|-13-13---------------------------10-12-13/14-----10-12b13r12p10---10-|
G|-------12-10--10----10-12-9-10-12-------------------------------11---|
D|---------------------------------------------------------------------|
A|---------------------------------------------------------------------|
E|---------------------------------------------------------------------|

e|-------------------------------------------14--17--12/14-14-17-19b21-|
B|-12-12b-12-12-----13---10-----------------x--------------------------|
G|-------------------------12--10-10-10----x---------------------------|
D|---------------------------------------------------------------------|
A|---------------------------------------------------------------------|
E|---------------------------------------------------------------------|

e|-19-17-17h19-17---17-------------------------------------------------|
B|---------------------------17----------------------------------------|
G|------------------------------17-------------------------------------|
D|--------------------------------17-17---------15---------15/16-------|
A|---------------------------------------------------------------------|
E|---------------------------------------------------------------------|


| /  slide up
| \  slide down
| h  hammer-on
| p  pull-off
| ~  vibrato
| +  harmonic
| x  Mute note
Добавлено: 24.03.2016
Другие материалы по этой песне:
  • Аккорды и текст

Страница создана 24.03.2016
http://primanota.ru/steven-wilson/four-trees-down-chords.htm
Привет, Гость.
Предлагаем пройти революционный курс по гитаре.
Подарок от PrimaNota.Ru, забирай!