PrimaNota.ru - самый крупный в мире бесплатный архив песенных текстов, аккордов, табулатур и нот


Steven Tyler - It Feels So Good - аккорды и текст, видео

Регистрация Запомнить меня
Войти через:  Facebook Google Twitter Vk Yandex Mail.ru

Steven Tyler - It Feels So Good - аккорды и текст, видео

Печатать
Просмотров: 321
Уроки эстрадного вокала в Санкт-Петербурге
It Feels So Good
Steven Tyler
-------------------------------------------------------------------------------
                             (It) Feels So Good - Steven Tyler
-------------------------------------------------------------------------------
Tabbed by: Alex Mastrodonato

First try at tabbing a riff, hope it makes sense, and that the timings are 
somewhat approximate. Message me for any corrections or additions.

Tuning: Standard

Intro riff: (Also can be played throughout verse)
e|---------------|-------------|---------------|--------------|
B|---------------|-------------|---------------|--------------|
G|---------------|-------------|---------------|--------------|  x2
D|---------------|-------------|---------------|-----4--4-3---|  
A|2--2--2-----4--|-4---6--6-4--|2--2--2-----4--|-4---2--2-1---|
E|0--0--0-2-4-2--|-2---4--4-2--|0--0--0-2-4-2--|-2------------|

OR

e|-----------------|----------------|-----------------|----------------|
B|-----------------|----------------|-----------------|----------------|
G|-----------------|----------------|-----------------|-----11--11-10--|  x2
D|9--9--9------11--|-11---13--13-11-|9--9--9------11--|-11--9---9--8---|  
A|7--7--7-9-11-9---|-9----11--11-9--|7--7--7-9-11-9---|-9--------------|
E|-----------------|----------------|-----------------|----------------|

(Either works, first is easier, but second is in the same octave as the song)


E         F#
Something cool went down
         E                        F#
As I was walking with a friend of mine
       E       F#
And I, I still remember,
            E                           F#
How she was smelling like the summer time

    B          A
And oh, how it changed my mind
        E            F#
Changed everything, about that, come on girl

E           B
It feels so good, loving you
C#            F#
Yeah, it's so good, the way you do the do
E           B
It feels so good, and I need oxygen,
C#                          F#
Little bit of heaven doin' 24-7 again

(Riff)
Yeah, again and again

E      F#
Like I was sayin'
My little cupid was real super freak
By the time that I came down
I'll get locked up in a room for a week

    B           A
And oh, how she changed my mind
        E           F#
Changed everything about this crazy world

E           B
It feels so good, loving you
C#            F#
Yeah, it's so good, the way you do the do
E           B
It feels so good, yeah and by the way
C#                    F#
Little bit of heaven 24-7 times a day

E      
A long hair
B
A double dare
C#
And I swear
  F#
A little bit will do you some good
E
Say where
B
I'm goin' there
C#
And I swear
      F#                B       C#
Can't get enough of you, oh yeah yah

E  B  C#  F# x2

E
Ma bonsoir
B
Excuse moi
C#
Ya oh la la
   F#
Is gonna doing to me good
E     F#         E (Let it ring)
Yeah, yeah, yeah

C# F#

E                    B
Oh yeah, it feels so good, loving you (loving you)
C#            F#
Yeah, it's so good, the way you do the do
E           B
It feels so good, yeah I need oxygen
C#                         F#
Little bit of heaven doin' 24-7 ah

Oh yeah, it feels so good, loving you (loving you)
Yeah, it's so good, the way you do the do
It feels so good, lovin' you (loving you)
It feels so good, making love to you
Uh yeah, oh yeah, oh yeah eah

(Riff) x2

E (Let it ring)
Yeah, yeah, yeah, yeah…
Добавлено: 23.06.2012
Другие материалы по этой песне:
  • Аккорды и текст

Страница создана 23.06.2012
http://primanota.ru/steven-tyler/it-feels-so-good-chords.htm
Привет, Гость.
Предлагаем пройти революционный курс по гитаре.
Подарок от PrimaNota.Ru, забирай!