PrimaNota.ru - самый крупный в мире бесплатный архив песенных текстов, аккордов, табулатур и нот


Steve Von Till - If I Needed You - таба, видео

Регистрация Запомнить меня
Войти через:  Facebook Google Twitter Vk Yandex Mail.ru

Steve Von Till - If I Needed You - таба, видео

Печатать
Просмотров: 87
-------------------------------------------------------------------------------

Tuning: Standard, capo on 3rd fret


    If I needed you  would you come      to    me
e|---0h2--3--2-----------2--3--5------5-----3-----2--2-----------------------|
B|---3----3--3--3--------3--3--3--3---3--3--3--3--3--3-----------------------|
G|---2----2--2--2--------2--2--2--2---2--2--2--2--2--2-----------------------|
D|---0----0--0--0--------0-----0---------------------0-----------------------|
A|---------------------------------------------------------------------------|
E|---------------------------------------------------------------------------|

 would you come       to     me              and  ease my pain
e|---2--3--5------5-----7-----3--3----3---3--3-------------------------------|
B|---3--3--3--3---3--3--0--0--3--3----3---3--3----2---2--2--2----------------|
G|---2--2--2--2---2--2--0--0--0--0----0---0--0----2---2--2--2----------------|
D|---0-----0------0--------------0----0---0--0----2--------------------------|
A|-------------------------------2----------------0--------------------------|
E|-------------------------------3-------------------------------------------|

e|-------2-----3------2--2---------------------------------------------------|
B|---3---3--3--3--3---3--3---------------------------------------------------|
G|---2---2--2--2--2---2--2---------------------------------------------------|
D|---0---0---------------0---------------------------------------------------|
A|---------------------------------------------------------------------------|
E|---------------------------------------------------------------------------|


and so on.
Добавлено: 01.08.2015
Вам также может быть интересно:
Другие материалы по этой песне:
  • Аккорды и текст

Страница создана 01.08.2015
http://primanota.ru/steve-von-till/if-i-needed-you-chords.htm
Привет, Гость.
Предлагаем пройти революционный курс по гитаре.
Подарок от PrimaNota.Ru, забирай!