PrimaNota.ru - самый крупный в мире бесплатный архив песенных текстов, аккордов, табулатур и нот


Steve Vai - Frank - таба, бас-таба, видео

Регистрация Запомнить меня
Войти через:  Facebook Google Twitter Vk Yandex Mail.ru

Steve Vai - Frank - таба, бас-таба, видео

Печатать
Просмотров: 242
www.mikesguitarsite.co.uk



Gtr I (E A D G B E) - 'Steve Vai - Rhythm clean electric'
Gtr II (E A D G B E) - 'Steve Vai - Lead w/distortion'

Intro
  Q=124
 6/4
  Gtr I
  W.                E  E E  E  E E E E E E E E   E  E E E E E E  E E E E E
|---------------||-----------------------------|-----------------------------|
|---------------||-10--8-8-------8-6-5-5-------|-6--5-5-3-3-5-3--1-1---------|
|---------------||---------10-10---------7-7s5-|---------------------3-3-2---|
|---------------||--8--------------7-----------|-5------------3--------------|
|---------------||-----------------------------|-----------------------------|
|---------------||-----------------------------|-----------------------------|
                    H.             H       Q     H.           H.


                                <
    |-3-|
  e s s s q  q  q  q  q    h    e e e e e e e e
|------------------------|-3--------------------||
|---------------1--------|-1--------------------||
|-2-3p2p0----0-----0-----|-0--------------------||
|---------3--------------|-3--------------------||
|------------------------|----------------------||
|---------------------3--|------3-3-3-3-3-3-3---||


  gtr ii
        pm|   pm                pm----|                    pm----|
  e  e  e e e e h.        e  e  e e e e h    +e  e   e  e  e e e e h     q
|-----------------------|--------------------------|--------------------------|
|-----------------------|--------------------------|--------------------------|
|-5-(5)---5-----5-------|--------------------------|--------------------------|
|-5h=7--7-7---5-5-------|-5-(5)-5-5-5-5-5----(5)s3-|-3-(3)---3-----3----(3)---|
|-----------------------|-5h=7--7-8-7-5-5----(5)s3-|-3h=5--5-5---3-3----(3)---|
|-----------------------|--------------------------|---------------------1----|


        pm----|                 pm    pm
  e  e  e e e e h.        e  e  e e e e h    e e
|-----------------------|--------------------8---|
|-----------------------|---------5------------8-|
|-----------------------|-5-(5)---5-----5--------|
|-3-(3)-3-3-3---3-------|-5h=7--7-7---5-5--------|
|-3h=5--5-6-5-3-3-------|------------------------|
|-------------1-1-------|------------------------|


        pm|
  e  e  e e e e q  +e  e  e   e
|---------------------------------|
|---------------------------------|
|-5-(5)---------4--(4)------------|
|-5-(5)-5-5-5---5--(5)------------|
|-5h=7--7-8-7-5-5--(5)-5-[7]s[5]--|
|---------------------------------|


        pm    pm                             pm       pm~
  e  e  e e e e h.        e e e s    +s  +e  e q  s s e q
|-----------------------|----------------------------------||
|-----------------------|----------------------------------||
|---------3-----2-------|-3--------------------5-----------||
|-3-(3)---3-----3-------|-3--------------------3-----------||
|-3h=5--5-5---3-3-------|-3h5-5-5b6==(5)r(5)-3-3-----------||
|---------------1-------|-------------------------5s3-1-1--||


              pm                 pm    pm
  e  e  e e e e q  q  q    e  e  e e e e q  +e  e e e
|------------------------|----------------------3-3-3-|
|------------------------|----------------------3-3-3-|
|------------------0-----|----------------------------|
|-2h=3--3-3---2-3-----3--|-0h=2--2-2---3-2--(2)-------|
|-1-(1)-1-1---1-1--------|-3-(3)-3-3---3-3--(3)-------|
|------------------------|----------------------------|


        pm    pm
  e  e  e e e e e e e e a q
|----------------------------|
|----------------------------|
|---------------------0------|
|-2h=3--3-3-x-2-3-3s5---5s3--|
|-1-(1)-1-1-x-1-1------------|
|----------------------------|


        pm
                 |-3-|
  e  e  e q  e e s s s q  q
|----------------------------|
|----------------------------|
|-------------------------0--|
|-0h=2----2--3-2h3p2-0-------|
|-3-(3)-3-3------------3-----|
|----------------------------|


            pm                   pm
  e e e e e e q  a q  q    e  e  e e e e q  e e e e
|------------------------|------------------3s5-5s3-|
|------------------------|------------------3s5-5s3-|
|----------------3s5s=3--|--------------------------|
|-5s3---3-x-2-3--3s5s=3--|-0h=2----2---3-2----------|
|-3s1-1-1-x-1-1--1s3s=1--|-3-(3)-3-3---3-3----------|
|------------------------|--------------------------|


              pm           pm|   pm    pm                       pm|
  e  e  e e e e q  q  q    e e e e e e q  e e e e   e e e e e e e e a e e q
|------------------------|------------------------|---------------------------|
|------------------------|----------------3s5s3---|-----------------4s5s3s5\--|
|------------------0-----|-----------2----2s4s2p0-|-----------2-----2s4s2s4\--|
|-2h=3----3-x-2-3-----3--|-----3---3--------------|-----3---3-----------------|
|-1-(1)-1-1-x-1-1--------|---3---0----------------|---3---0-------------------|
|------------------------|-1-----------3----------|-1-----------3-3-----------|


  pm    pm                                pm|
  e e e e e e q  a e e q     q   e e q  e e e e e e
|-------------------------|-------------------0-----|
|----------------3s5s3----|--------1------------1---|
|-----------2----2s4s2p0--|-(0)------0------0-----0-|
|-----3---3---------------|---------------2---------|
|---3---0-----------------|------3------0-----------|
|-1-----------3-----------|--1----------------------|


  h.      e  a      +s   +s   e  e  e  e
|-3--------------------------------10----|
|-3---------15b16==(15)r(15)s12p10----10-|
|-0--------------------------------------|
|-0--------------------------------------|
|----------------------------------------|
|-3--------------------------------------|


                      pm                    pm|
   a  e  e  a  q   e  e  e  e   s   s   e   e  e
|------------------------------------------------|
|-------12--------------10-----------------------|
|-12s14----14s12--10-------10-(10)(10)(10)-------|
|--------------------14--------14h=15p=14--12-10-|
|------------------------------------------------|
|------------------------------------------------|


                       <
       pm---|
  e  e e  e  e  e  q   e  e  q
|---------------------------------||
|---------------------13-13-13\---||
|----9------------14--12-12-12\---||
|-9-10-9-------10-----12-12-12\---||
|--------12-10--------------------||
|---------------------------------||


   e   e   e  e e  e  q   +e   e  e  e
|--------------------------------15----|
|-13-(13)-13-13---13-13--(13)-------13-|
|-12h=14--14-14---12-12--(12)-12-------|
|--------------------------------------|
|--------------------------------------|
|--------------------------------------|


           pm------|                               pm      pm
   e   e   e  e  e  e  q   +e   e  e  e    e   e   e  e e  e  q   +e   e  e  e
|---------------------------------------|--------------------------------13----|
|---------------------------------------|-10h=11-----11------10--(10)-------13-|
|-12-(12)-12-12-12-12-12--(12)----------|-10-(10)----10------10--(10)----------|
|-12h=14--14-15-14-12-12--(12)-12-14s12-|-10h=12--12-12---10-10--(10)-10-------|
|---------------------------------------|--------------------------------------|
|---------------------------------------|--------------------------------------|


   pm--------------|                           ~~~~
   e   e   e  e  e  e  e  s  s e  s      +s   +q
|--------------------------------------------------|
|---------------------10---------------------------|
|-10-(10)-10-10-10-10-10---------------------------|
|-10h=12--12-13-12-10-10---------------------------|
|------------------------12s10s8-10b12==(10)r(10)--|
|--------------------------------------------------|


                                                  pm------|       pm------------|
   e   e   e  e e  e  q   +e   e  e  e    e   e   e  e  e  e  q   s  s  e  s  s  e
|--------------------------------------|---------------------------------------------|
|-13-(13)----13------13--(13)-18s15s13-|---------------------------------------------|
|-12h=14--14-14---12-12--(12)-17s14s12-|-12-(12)-12-12-12-12-12----------------------|
|--------------------------------------|-12h=14--14-15-14-12-12--14s12-10-12s14-12---|
|--------------------------------------|---------------------------------------------|
|--------------------------------------|---------------------------------------------|


           pm      pm     t
   e   e   e  e e  e  q   h
|----------------------------------|
|-10h=11-----11------10--10(22)----|
|-10-(10)----10------10--10(22)----|
|-10h=12--12-12---10-10--10(22)----|
|----------------------------------|
|----------------------------------|


                  /1\
                                                 ~
   e   e   e  s  +s    +e   e  e  s  s s  s  a e q
|---------------------------------------------------||
|-10h=11-----11-(11)--(11)-10-----------------------||
|-10-(10)-10-10-(10)--(10)-10-10--------------------||
|-10h=12--12-12-(12)--(12)-10-10--------------------||
|--------------------------------12s10-8s10---------||
|-------------------------------------------12s8-8--||


                                                    pm          pm
  e  e   e  e e e  q   a  q   q     e   e   e  e e  e  q   +e   e e e
|--------------------------------|--------------------------------8---|
|--------------------------------|--------------------------------8---|
|-9h10--10-10---9-10--10s12--10--|--7h==9---9--9---10--9---(9)------9-|
|-8-(8)--8--8---8--8---8s10---8--|-10-(10)-10-10---10-10--(10)-10-----|
|--------------------------------|------------------------------------|
|--------------------------------|------------------------------------|


         pm-----|
  e  e   e  e e e  e  e  q   e  e
|-----------------------------------|
|-----------------------------------|
|-9h10--10-10---9-10-10s12s=10------|
|-8-(8)--8--8---8--8--8s10s==8h10---|
|-----------------------------------|
|-----------------------------------|


           pm                                                pm
                    |3-|
   e   e   e  q   e e  s s s  q  q    a a  e  e  e  e      e e  e  e  q   e  e
|--------------------------------8--|------------------------------------------|
|--------------------------------8--|------------------------------------------|
|--7h==9---9--9--10-9h10p9-7--------|-----12s10-10-10b10.5---9-10-10s14--10----|
|-10-(10)-10-10--------------10-----|-----10s=8--8--8b8.5----8--8--8s12---8h10-|
|-----------------------------------|---x--------------------------------------|
|-----------------------------------|-x----------------------------------------|


           pm|
   e   e   e  e e  e  e  e  e  e  q    a a  e  e  e  q   e  e  e  e  e  q
|------------------------------------|--------------------------------------|
|------------------------------------|-----13s11-11-11--11-11-11s18-18------|
|--7h==9---9--9---12-12-10--9-10--9--|-----12s10-10-10---9-10-10s17-17------|
|-10-(10)-10-10---10-10-10-10-10-10--|-----10s=8--8--8---8--8--8s15-15------|
|------------------------------------|---x----------------------------------|
|------------------------------------|-x-------------------------------17\--|


  e  e  e  a  e  e  e  q   a  q   e e
|-------------------------10s12--10s8-|
|------------------10-----10s12--10s8-|
|------10-------10--------------------|
|---10--------------------------------|
|-8-------10s12-------10--------------|
|-------------------------------------|


  e  e  e  a  e  e  e  e  e a a  a  e  e  a  q
|-------------------------------10s12s10-10s12\---|
|---------------10--------------10s12s10-10s12\---|
|------10----------10-----------------------------|
|---10------------------------x-------------------|
|-8-------10s12----12s10----x---------------------|
|------------------------10-----------------------|


  e  e  e  a  e  e  e  q   a  q   e e
|-------------------------10s12--10s8-|
|------------------10-----10s12--10s8-|
|------10-------10--------------------|
|---10--------------------------------|
|-8-------10s12-------10--------------|
|-------------------------------------|


                                   3/4
  q   e  e  q   a  q   e  e  e  e    q    q    e   e
|---------------------------------|-------------------|
|-------10---------------10-------|-------------------|
|----------10---------------10----|-----<12>--<7>-----|
|----10---------------10-------10-|---------------<7>-|
|-8------------10s12--------------|-10----------------|
|---------------------------------|-------------------|


 6/4
                 PM
   E    E  E  E  E  E  E  E  E  E  E  E
|------19s17s15-------13----------------|
|-<5>-----------15h17----17-15s13----13-|
|-<5>-----------------------------16----|
|---------------------------------------|
|---------------------------------------|
|---------------------------------------|


                              PM|
   E  E  E  E  E  E  E  S  S  E  E  E  E
|----------------------------------------|
|----------------------------------------|
|-16p14----14-------14-------------------|
|-------17----17-15-14h15p14-------------|
|----------------------------17-15-14s12-|
|----------------------------------------|


                                        T      T              T     T     T
   E  E  E  Q   E  Q   E E E E   Q  +E  Q      E     +Q   +E  E     E     E
|-------10---------------------|------------------------------------------------|
|----------10------------------|------------------------------------------------|
|---------------------12-------|-7--(7)-----------------------------------------|
|----12--------12s10--10-------|-7--(7)-----------------------------------------|
|-10---------------8-----8s7s5-|-5--(5)--------7(19)-(7)--(7)-------7(19)-------|
|------------------------------|--------5(17)-----------------5(17)-------8(20)-|


  T     T     T     T     T     T
  E     E     E     E     E     E     +H.
|--------------------------------------------||
|-------------------------5(17)--------------||
|-------------------5(17)-------5(17)-(5)----||
|-7(19)-------7(19)--------------------------||
|-------5(19)--------------------------------||
|--------------------------------------------||


 Guitar Solo
  Gtr II
                         \1/
  H.            H       +Q        +W.
|-----------------------------|-------------------|
|-----------------------------|-------------------|
|-------------<12>----(<12>)--|-(<12>)------------|
|-----------------------------|-------------------|
|-----------------------------|-------------------|
|-----------------------------|-------------------|
|
| Gtr I
| E  E E E Q   +H.                 W.
|----------3---(3)------------|-^--1--------------|
|----------3---(3)------------|-^--1--------------|
|--------0--------------------|-^--3--------------|
|------0----------------------|-^--3--------------|
|----2------------------------|-^--1--------------|
|-3---------------------------|-^--1--------------|


                           /0.5\   \1/                                          \1
  H.           Q    +E    +E      +Q       +W.                +Q     Q    Q    +H.
|---------------------------------------|------------------|---------------------------|
|---------------------------------------|------------------|---------------------------|
|---------------------------------------|------------------|-------------<7>--(<7>)----|
|-------------<7>--(<7>)-(<7>)---(<7>)--|-(<7>)------------|-(<7>)---------------------|
|---------------------------------------|------------------|---------------------------|
|---------------------------------------|------------------|---------------------------|
|
| E  E E E Q  +H.                           W.                 E   E E E  Q    +H.
|----------1--(1)-----------------------|-^-3--------------|--------------1----(1)-----|
|----------1--(1)-----------------------|-^-0--------------|--------------1----(1)-----|
|--------2------------------------------|-^-0--------------|-----------3---------------|
|------3--------------------------------|-^-0--------------|---------3-----------------|
|----3----------------------------------|-^-2--------------|-------1-------------------|
|-1-------------------------------------|-^-3--------------|---1-----------------------|


                              \0.5                           /1\     \1
   +H.        +H       +E    +E       +E   E Q   Q    Q     +Q      +Q
|----------------------------------|--------------------------------------|
|----------------------------------|----------------<12>--(<12>)--(<12>)--|
|-(<7>)------(<7>)----(<7>)-(<7>)--|-(<7>)--------------------------------|
|----------------------------------|--------------------------------------|
|----------------------------------|--------------------------------------|
|----------------------------------|--------------------------------------|
|
|   W.                                 E   E E E Q   +H.
|-^-4------------------------------|-------------3---(3)------------------|
|-^-4------------------------------|-------------3---(3)------------------|
|-^-5------------------------------|-----------0--------------------------|
|-^-6------------------------------|---------0----------------------------|
|-^-6------------------------------|-------2------------------------------|
|-^-4------------------------------|---3----------------------------------|


            \1
   +H      +E   +E   +H.         +W.
|-----------------------------|---------------------------------------|
|-(12)----(12)-(12)-(12)------|-(12)----------------------------------|
|-----------------------------|---------------------------------------|
|-----------------------------|---------------------------------------|
|-----------------------------|---------------------------------------|
|-----------------------------|---------------------------------------|
|
|   W.                            E  E +E  E E +E  E E +E  E E +E
|-^-1-------------------------|------3-(3)---3-(3)---3-(3)---3-(3)----|
|-^-1-------------------------|------1-(1)---1-(1)---1-(1)---1-(1)----|
|-^-3-------------------------|---0--------0-------0-------0----------|
|-^-3-------------------------|---3--------2-------0------------------|
|-^-1-------------------------|----------------------------3----------|
|-^-1-------------------------|---------------------------------------|


       \0.25/                                               \1____________|
                                                                  ~~~
  Q    E       E   Q       +H        +Q      E    +E  +Q    Q    +H      +E  E
|------------------------------------------|-----------------------------------|
|------------------------------------------|-----------------------------------|
|-----<5>----------------------------------|-7b8==(7)r(7)----------------------|
|-------------<5>-<7>b9===(<7>)r====(<7>)--|----------------7----(7)-----(7)---|
|------------------------------------------|-----------------------------------|
|------------------------------------------|-----------------------------------|
|
| Q.           E   Q        Q.    E   Q      Q.           E Q     Q.   E  Q
|-3------------3---3--------2-----2---2----|-3------------3-3-----0----0--0----|
|-3------------3---3--------3-----3---3----|-3------------3-3-----1----1--1----|
|-0------------0---0--------4-----4---4----|-5------------5-5-----0----0--0----|
|-0------------0---0--------4-----4---4----|-5------------5-5-----2----2--2----|
|-2------------2---2--------2-----2---2----|-3------------3-3-----0----0--0----|
|-3------------3---3--------2-----2---2----|-3------------3-3------------------|


   \2.5______________/                   \2.5______________________________/
   Q        +Q      +Q     +H      Q     Q        +Q      +Q     +H       +E    +E
|-------------------------------------|----------------------------------------------|
|-------------------------------------|----------------------------------------------|
|-<7>------(<7>)---(<7>)--(<7>)-------|-<5>------(<5>)---(<5>)--(<5>)----(<5>)-(<5>)-|
|-------------------------------------|----------------------------------------------|
|-------------------------------------|----------------------------------------------|
|-------------------------------------|----------------------------------------------|
|
|  E     E   E   E   Q      H.           E     E   E   E   Q      H.
|--------------------3----^-3---------|--------------------2----^-3------------------|
|------------1------------^-3---------|------------1------------^-3------------------|
|----------------2--------^-0---------|----------------1--------^-0------------------|
|--1----------------------^-0---------|--1----------------------^-0------------------|
|--------3----------------^-2---------|--------1----------------^-2------------------|
|-------------------------^-3---------|-------------------------^-3------------------|


                       \0.5____/
                                     ~~~~~
   E      +E    +Q     E      +E    +H.
|-------------------------------------------|
|-------------------------------------------|
|-<7>b8==(<7>)r(<7>)------------------------|
|---------------------<7>----(<7>)-(<7>)----|
|-------------------------------------------|
|-------------------------------------------|
|
|  H.                                H.
|-^6---------------------------------2------|
|-^6---------------------------------3------|
|-^6---------------------------------2------|
|-^5---------------------------------0------|
|-^6---------------------------------0------|
|-------------------------------------------|


        \2.5/
  E.    S      +Q      E      +E    +H.
|---------------------------------------------|
|---------------------------------------------|
|------<5>----(<5>)---------------------------|
|---------------------<5>b6==(<5>)r(<5>)------|
|---------------------------------------------|
|---------------------------------------------|
|
| E  E          E   E  Q             H.
|----------------------3-------------2--------|
|---------------3--------------------3--------|
|-------------------3----------------2--------|
|-1----------------------------------4--------|
|----3-------------------------------2--------|
|------------------------------------2--------|


                                                          ~~
   +H.            +H         +Q          +H.        +E    E    H
|-------------------------------------|-------------------------------|
|-------------------------------------|-------------------------------|
|-------------------------------------|-------------------------------|
|-(<5>)----------(<5>)------(<5>)b7===|=(<5>)------(<5>)r-------------|
|-------------------------------------|-------------------------------|
|-------------------------------------|-------------------x\-<17>\----|
|
|   Q    E E E E   Q    E E   Q           W.
|---0----0---------0------------------|---0---------------------------|
|---0------0------------0-------------|---0---------------------------|
|---2--------2------------2-----------|---1---------------------------|
|---2----------2----------------------|---2---------------------------|
|---2-------------------------2-------|---2---------------------------|
|-------------------------------------|---0---------------------------|


                          ~~~                                  ~~~
  E   E   E   E   E   E   H.           E   E   E   E   E   E   H.
|-----------------------------------|------------------------------------|
|--------<7>------------------------|-<7>-----<5>------------------------|
|----<7>-----<7>-<5>----------------|-----<7>-----<5>--------------------|
|--------------------<4>------------|-----------------<5>----------------|
|------------------------<4>--------|---------------------<5>-<4>--------|
|-----------------------------------|------------------------------------|
|
| Q.          E   Q       Q.   E Q     E   Q       E   Q       Q.   E Q
|-2-----------2---2-------0----0-0--|--2---2-------2---3-------0----0-0--|
|-3-----------3---3-------2----2-2--|--3---3-------3---0-------2----2-2--|
|-2-----------2---2-------2----2-2--|--2---2-------2---0-------2----2-2--|
|-0-----------0---0-------2----2-2--|--0---0-------0---0-------2----2-2--|
|-0-----------0---0-------0----0-0--|--0---0-------0---2-------0----0-0--|
|-----------------------------------|------------------3-----------------|


                                    /
                                         ~~~~~
   S      +S    +E     E   E    E   E   +H.
|-<7>b8==(<7>)r(<7>)-<12>---------------------------|
|---------------------------------------------------|
|-------------------------<7>-<12>------------------|
|----------------------------------<7>-(<7>)--------|
|---------------------------------------------------|
|---------------------------------------------------|
|
|  Q.                      E    Q        Q.    E Q
|--0-----------------------0----0--------3-----3-3--|
|--1-----------------------1----1--------3-----3-3--|
|--0-----------------------0----0--------0-----0-0--|
|--2-----------------------2----2--------0-----0-0--|
|--3-----------------------3----3--------2-----2-2--|
|----------------------------------------3-----3-3--|


                          \1____/                              \2.5_________/     \1____/
                                            ~~~~
   S      +S    +E    E   E    +E    +E     H.           Q    +W           +E    +S    +S
|-----------------------------------------------------|-------------------------------------|
|-----------------------------------------------------|-------------------------------------|
|-<5>b7==(<5>)r(<5>)-<7>------------------<12>--------|-<5>--(<5>)--------(<5>)-(<5>)-(<5>)-|
|------------------------<7>--(<7>)-(<7>)-------------|-------------------------------------|
|-----------------------------------------------------|-------------------------------------|
|-----------------------------------------------------|-------------------------------------|
|
|  E             Q        E     Q           Q.   E Q     q     Q      Q  H.
|--0-------------0--------0-----1-----------3----3-3--|--1----------------------------------|
|--1-------------1--------1-----1-----------3----3-3--|--1----------------------------------|
|--0-------------0--------0-----2-----------0----0-0--|--2----------------------------------|
|--2-------------2--------2-----3-----------0----0-0--|--3----------------------------------|
|--3-------------3--------3-----3-----------2----2-2--|--3----------------------------------|
|-------------------------------1-----------3----3-3--|--1----------------------------------|


  Gtr II
           \2___________/     \2____/
   +Q     +W           +E    +S    +S
|---------------------------------------|
|---------------------------------------|
|-(<5>)--(<5>)--------(<5>)-(<5>)-(<5>)-|
|---------------------------------------|
|---------------------------------------|
|---------------------------------------|


           \3.5___________/     \1.5____/
   +Q     +W             +E    +S      +S      +Q     +W           Q
|-------------------------------------------|--------------------------||
|-------------------------------------------|--------------------------||
|-(<5>)--(<5>)----------(<5>)-(<5>)---(<5>)-|-(<5>)--(<5>)\------------||
|-------------------------------------------|--------------------------||
|-------------------------------------------|--------------------------||
|-------------------------------------------|--------------------------||


  Gtr II
        PM    PM   T                 PM----|        PM
  E  E  E E E E Q  H           E  E  E E E E Q  +E  E S    +S  +E
|----------------------------|-------------------------------------|
|---------------8------------|-------------------------------------|
|-5-(5)---5-----5--5(17)-----|---------------4--(4)----------------|
|-5h=7--7-7---5----5(17)-----|-5-(5)-5-5-5---5--(5)----------------|
|----------------------------|-5h=7--7-8-7s5-5--(5)-3-5b6==(5)r(5)-|
|----------------------------|-------------------------------------|
|
| Gtr I
| Q.      E Q   H         Q    Q.      E Q   H        Q
|-0-------0-0---0---------0--|-0-------0-0---3--------3------------|
|-1-------1-1---1---------1--|-1-------1-1---3--------3------------|
|-0-------0-0---0---------0--|-0-------0-0---0--------0------------|
|-2-------2-2---2---------2--|-2-------2-2---0--------0------------|
|-3-------3-3---3---------3--|-3-------3-3---2--------2------------|
|----------------------------|---------------3--------3------------|


      PM
  E E E E E E Q  H       E E E S S E E E E E  E  E  E
|----------------1-----|------------------------------|
|-------------1--1-----|-----------------6-8s10-10----|
|-3-----3--------------|-5s7-7-7s8-7s5-5-5-7s=9-10-10-|
|-3-----3-----3--------|---------------5-3-5s=7-10----|
|-3h5-5-5---3-3--------|-3s5-5-5s6-5s3-3---------8----|
|----------------------|------------------------------|
|
| Q.    E Q   H     Q    Q.    E   Q   H         Q
|-1-----1-1---1-----1--|-1-----1---1---1---------1----|
|-3-----3-3---1-----1--|-3-----3---3---1---------1----|
|-3-----3-3---2-----2--|-3-----3---3---2---------2----|
|-3-----3-3---3-----3--|-3-----3---3---3---------3----|
|-1-----1-1---3-----3--|-1-----1---1---3---------3----|
|-1-----1-1---1-----1--|-1-----1---1---1---------1----|


           ~~~~~
   E   E   E  E E  E  Q   E  E  E  S  S
|-----------------12-12--12-------------|
|-13-(13)----13---13-13-----13----13s17-|
|-12h=14--14-14---12-12--------12-------|
|---------------------------------------|
|---------------------------------------|
|---------------------------------------|
|
|  Q.         E Q     H         Q
|--0----------0-0-----0---------0-------|
|--1----------1-1-----1---------1-------|
|--0----------0-0-----0---------0-------|
|--2----------2-2-----2---------2-------|
|--3----------3-3-----3---------3-------|
|---------------------------------------|


   E   E   E  E  E  E  Q   S  S  S  S  E  E
|-15-(15)----15-15-15-15--15s13-13s10--------|
|-15h=17--17-18-17-15-15--15s13-13s10-13-10--|
|-------------------------------------12-10--|
|--------------------------------------------|
|--------------------------------------------|
|--------------------------------------------|
|
|  Q.         E  Q     H               Q
|--0----------0--0-----3---------------3-----|
|--1----------1--1-----3---------------3-----|
|--0----------0--0-----0---------------0-----|
|--2----------2--2-----0---------------0-----|
|--3----------3--3-----2---------------2-----|
|----------------------3---------------3-----|


   E   E   E  E E  E  Q   E  E  S      +E.
|------------------------13----------------|
|-10h=11-----11------10-----13-------------|
|-10-(10)----10---10-10--------12pb13r(12)-|
|-10h=12--12-12---10-10--------------------|
|------------------------------------------|
|------------------------------------------|
|
|  Q.         E Q     H         Q
|--1----------1-1-----1---------1----------|
|--3----------3-3-----1---------1----------|
|--3----------3-3-----2---------2----------|
|--3----------3-3-----3---------3----------|
|--1----------1-1-----3---------3----------|
|--1----------1-1-----1---------1----------|


                                        ~~
   E   E   E  E  E  E  E  a  E E  a  E  Q
|------------------------------------------||
|-10h=11-----------------------------------||
|-10-(10)-10-10-10-10-10-------------------||
|-10h=12--12-13-12-10-10---------10s12-10--||
|------------------------12s10-8-----------||
|------------------------------------------||
|
|  Q.         E  Q     H                Q
|--1----------1--1-----1----------------1--||
|--3----------3--3-----1----------------1--||
|--3----------3--3-----2----------------2--||
|--3----------3--3-----3----------------3--||
|--1----------1--1-----3----------------3--||
|--1----------1--1-----1----------------1--||


                                             PM
  E  E  E  E E E  Q   S  E.  E  E    E   E   E  E E  E  E   E   E   E   Q
|---------------------------------|-----------------------------------------|
|---------------------------------|-----------------------------------------|
|-9h10-10-10---9-10--10s12--10----|--7h==9------9---10--9-<12>-<7>-<7>------|
|-8-10--8--8---8--8---8s10---8h10-|-10-(10)-10-10---10-10--------------<7>--|
|---------------------------------|-----------------------------------------|
|---------------------------------|-----------------------------------------|
|
| Q.       E Q    H          Q       Q.         E Q     H               Q
|-1--------1-1----1----------1----|--0----------0-0-----0---------------0---|
|---------------------------------|--1----------1-1-----1---------------1---|
|-3--------3-3----3----------3----|--0----------0-0-----0---------------0---|
|-3--------3-3----3----------3----|--2----------2-2-----2---------------2---|
|-1--------1-1----1----------1----|--3----------3-3-----3---------------3---|
|-1--------1-1----1----------1----|-----------------------------------------|


  E  E   E  Q   E  E  E  Q   Q
|-------------------------------|
|-------------------------------|
|-9h10--10-10---9-10-10s14s=10--|
|-8-(8)--8--8---8--8--8s12s==8--|
|-------------------------------|
|-------------------------------|
|
| Q.        E Q    H         Q
|-1---------1-1----1---------1--|
|-------------------------------|
|-3---------3-3----3---------3--|
|-3---------3-3----3---------3--|
|-1---------1-1----1---------1--|
|-1---------1-1----1---------1--|


  a a  E      +S  S  E T     +T  +S  +E  E a E a E E E Q
|----------------------------------------------------------|
|-----10pb11r(10)p8----------------------------------------|
|---x---------------10-9b11==(9)r(9)-(9)-------------------|
|-x--------------------------------------8-----------------|
|------------------------------------------9s8-8s7---------|
|--------------------------------------------------8s6s3---|
|
|      Q.              E              Q      H         Q
|------0---------------0--------------0------0---------0---|
|------1---------------1--------------1------1---------1---|
|------0---------------0--------------0------0---------0---|
|------2---------------2--------------2------2---------2---|
|------3---------------3--------------3------3---------3---|
|----------------------------------------------------------|


        PM
  E  E  E E E E E E E E a Q    E  E  E Q   E E  E  E a  E  Q
|----------------------------|----------------------------10/--|
|----------------------------|-----------------------9s10-10/--|
|---------------------0------|---------------------------------|
|-2h=3--3-3---2-3-3s5---5s3--|-0h=2----2----------12-----------|
|-1-(1)-1-1---1-1------------|-3-(3)-3-3-------10--------------|
|----------------------------|-3-(3)-3-----3s8-----------------|
|
| Q.      E Q   H         Q    Q.      E Q   H             Q
|-1-------1-1---1---------1--|-0-------0-0---0-------------0---|
|----------------------------|-1-------1-1---1-------------1---|
|-3-------3-3---3---------3--|-0-------0-0---0-------------0---|
|-3-------3-3---3---------3--|-2-------2-2---2-------------2---|
|-1-------1-1---1---------1--|-3-------3-3---3-------------3---|
|-1-------1-1---1---------1--|---------------------------------|


    E    E  E  Q    E  E  S  S   Q    Q     E  E E E  E E Q   E E E E
|-\15--\13-13-13---12-13--------17S==13\--|---------------------------|
|-\13--\11-11-11---11-11-11s15-(15)S=11\--|-------------------3s5s3---|
|-----------------------------------------|-------------2-----2s4s2p0-|
|-----------------------------------------|------3----3---------------|
|-----------------------------------------|----3---0------------------|
|-----------------------------------------|-1-------------3-----------|
|
|   Q.         E Q     H              Q     Q.     Q.     H.
|---1----------1-1-----1--------------1---|-1------1------3-----------|
|---3----------3-3-----3--------------3---|-1------1------3-----------|
|---3----------3-3-----3--------------3---|--------2------0-----------|
|---3----------3-3-----3--------------3---|-3------3------0-----------|
|---1----------1-1-----1--------------1---|-3------0------2-----------|
|---1----------1-1-----1--------------1---|-1-------------3-----------|


  a E   E  E  a  E   E  E  Q    a  E  E  a  Q
|----------------------------------------------|
|----------------------10------10s12-10-10s12--|
|---------10-------------------10s12-10-10s12--|
|------10-----------10-------------------------|
|-3s8--------10s12--------10-------------------|
|----------------------------------------------|
|
|   Q.           Q.        H.
|---1------------1---------3-------------------|
|---1------------1---------3-------------------|
|----------------2---------0-------------------|
|---3------------3---------0-------------------|
|---3------------0---------2-------------------|
|---1----------------------3-------------------|


                                       PM---|
   E   E  E  a  E   E  E  Q    S   S   E  E  E
|-----------------------------------------------|
|--------13--------17-17-15---------------------|
|-10--10----12s14-----14-12---12-(12)-----------|
|-----------------------------12h=14--12--------|
|----------------------------------------15-14\-|
|-----------------------------------------------|
|
|  Q.           Q.        H.
|--1------------1---------3---------------------|
|--1------------1---------3---------------------|
|---------------2---------0---------------------|
|--3------------3---------0---------------------|
|--3------------0---------2---------------------|
|--1----------------------3---------------------|


                            3/4
   E  E E Q.   E  E E E Q    Q.     E +E   S   S
|-------------------0------|-3------3-(3)---------|
|-------1-------------1----|-3------3-(3)---------|
|---------0-------------0--|-0------0-(0)-----<5>-|
|-----------------2--------|-0------0-(0)-<5>-----|
|-----3--------0-----------|----------------------|
|-\1-----------------------|-3------3-(3)---------|
|
|  H.          H.            E  E E E  E   E
|--1-----------1-----------|-3--3-3-3--3---3------|
|--1-----------1-----------|-3--3-3-3--3---3------|
|--------------2-----------|-0--0-0-0--0---0------|
|--3-----------3-----------|-0--0-0-0--0---0------|
|--3-----------0-----------|-2--2-2-2--2---2------|
|--1-----------------------|-3--3-3-3--3---3------|


 6/4
  Gtr II
                                             ~~~      ~~~~
   E  E a a  E  S  S  E  E E E  E E  E  E    Q   E E  Q   E a E E E Q
|-----------10-------------8--------------|----------------------------||
|---------x-10h11p10---------8------------|-12s=10----8S==6-----5p3-3--||
|-<5>---x------------12s10-----10p9-------|----------------------------||
|-----------------------------------10h12-|-12s=10-9-(9)S=7-7s5-5---5--||
|-----------------------------------------|----------------------------||
|-----------------------------------------|----------------------------||


 Free Time
                             /1\
  Q  Q   E      +E    +E     E    Q    E   E
|------------------------------------------------|
|-------<5>b6==(<5>)-(<5>)r-<5>--<5>-------------|
|-------------------------------------<7>--------|
|-----------------------------------------<7>b9==|
|------------------------------------------------|
|------------------------------------------------|


              /1\                         \4
   +H         E    +E    +Q     +E    E   Q
|---------------------------------------------|
|---------------------------------------------|
|------------<7>--(<7>)-(<7>)--(<7>)----------|
|-(<7>)r----(<7>)-(<7>)-(<7>)--(<7>)-----<7>--|
|------------------------------------<7>------|
|---------------------------------------------|


            \1_____/              \1_____________
   +Q.      a     +E     +Q.      E     +H
|-----------------------------------------------|
|-----------------------------------------------|
|-------------------------------<12>--(<12>)----|
|-(<7>)---<12>--(<12>)-(<12>)-------------------|
|-----------------------------------------------|
|-----------------------------------------------|


     /       \1_____/             \1_____/
    +Q.      a     +E     +E      a     +E     +H.          +W.
|--------------------------------------------------------|---------*|
|----------<12>--(<12>)-(<12>)-(<12>)-(<12>)-(<12>)------|-(12)----*|
|-(<12>)---------(<12>)-(<12>)-(<12>)-(<12>)-(<12>)------|-(12)----*|
|-------------------------------<12>--(<12>)-(<12>)------|-(12)----*|
|--------------------------------------------------------|---------*|
|--------------------------------------------------------|---------*|
Добавлено: 18.07.2012
Другие материалы по этой песне:

Страница создана 01.04.2012
http://primanota.ru/steve-vai/frank-chords.htm
Привет, Гость.
Предлагаем пройти революционный курс по гитаре.
Подарок от PrimaNota.Ru, забирай!