PrimaNota.ru - самый крупный в мире бесплатный архив песенных текстов, аккордов, табулатур и нот


Steve Taylor - On The Fritz - аккорды и текст, таба, видео

Регистрация Запомнить меня
Войти через:  Facebook Google Twitter Vk Yandex Mail.ru

Steve Taylor - On The Fritz - аккорды и текст, таба, видео

Печатать
Просмотров: 115
On The Fritz
Steve Taylor
		   Title: On The Fritz
Album: Liver
by: Steve Taylor
Tabbed By: Nate Hazen starhop@hotmail.com
If you have a fancier version, please send it to me.  Also, if you have
the tabs for The Way I Am by Reality Check, i need that one, too.

Intro: G5,D5,G5,D5,G5,D5
e|------------------------------------------------|
B|------------------------------------------------|
G|--------------------------5----------5----------|
D|------------------------7----------7------------|
A|----------------------5----------5--------------|
E|------------------------------------------------|


e|---------------------------------------------------------------|
B|---------------------------------------------------------------|
G|----------5~~~~~~~~~-------------------------------------------|
D|--------7------------------------------------------------------|
A|--3/--5--------------------------------------------------------|
E|---------------------------------------------------------------|
        He wished to right the wrongs, he sang religious songs


e|---------------------------------------------------------------|
B|---------------------------------------------------------------|
G|----------5~~~~~~~~~~------------------------------------------|
D|--------7------------------------------------------------------|
A|--3/--5--------------------------------------------------------|
E|---------------------------------------------------------------|
        He kept the private he under a lock and key


e|---------------------------------------------------------------|
B|---------------------------------------------------------------|
G|----------5~~~~~~~~~~------------------------------------------|
D|--------7------------------------------------------------------|
A|--3/--5--------------------------------------------------------|
E|---------------------------------------------------------------|
      Heat keeps risin' in an age of passion, shakes a concience to the
core


e|---------------------------------------------------------------|
B|---------------------------------------------------------------|
G|----------5----------------------------------------------------|
D|--------7------------------------------------------------------|
A|--3/--5--------------------------------------------------------|
E|---------------------------------------------------------------|
        Stopgap, hand slap, take a toungue lashin'


                   D5    A5
      My poor soul can't take any more

Chorus:         D5   G5   B#5   Bb5   A5
         On the fritz
         (repeat)
                  D5   G5   B#5   Bb5   A5
         There he sits
                D5   G5   B#5   Bb5   A5
         On the fritz


Bridge:(no guitar)
     G the crowds grew and their praise did too
     And a mailing list sent you money
     G they love Jerry Lewis in France
     Does that make him funny?
     Its too late for apologies when trust has been betrayed
     Now victims of your double life are naming names

Verse 2:
      He kept his ego there it was a sad affair......on the fritz
      The Public's had enough they've come to call your bluff...on the
fritz
      Small talk breeds where kingdoms come crashing, rumor conquers
where it wills
      No one hears you go ahead and cash in if you don't die to yourself

      Pride Kills

      (chorus)


thats the song. if it's not very good, thats because it's my first tab.
send better versions and corrections of this one and also the tab to The
Way I Am by Reality Check to starhop@hotmail.com.     
Добавлено: 25.11.2013
Другие материалы по этой песне:
  • Аккорды и текст

Страница создана 20.08.2013
http://primanota.ru/steve-taylor/on-the-fritz-chords.htm
Привет, Гость.
Предлагаем пройти революционный курс по гитаре.
Подарок от PrimaNota.Ru, забирай!