PrimaNota.ru - самый крупный в мире бесплатный архив песенных текстов, аккордов, табулатур и нот


Steve Taylor - Curses - таба, видео

Регистрация Запомнить меня
Войти через:  Facebook Google Twitter Vk Yandex Mail.ru

Steve Taylor - Curses - таба, видео

Печатать
Просмотров: 75
		   "Curses"
			SQUINT (Steve Taylor)
		       Transcribed by Mike Noel
			   noel@cse.ogi.edu

                                                                 
  e e q e s s q   e e q e s s q   e e q e s s q   e e q e s s q  
+---------------+---------------+---------------+---------------+
|---------------|---------------|---------------|---------------|
|-1-3-3-1-3-3-3-|-1-3-3-1-3-4-3-|-1-3-3-1-3-3-3-|-1-3-3-1-3-4-3-|
+---------------+---------------+---------------+---------------+

                                                                 
  e e q e s s q   e e q e s s q   e e q e s s q   e e q e s s q  
+---------------+---------------+---------------+---------------+
|---------------|---------------|---------------|---------------|
|-1-3-3-1-3-3-3-|-1-3-3-1-3-4-3-|-1-3-3-1-3-3-3-|-1-3-3-1-3-4-3-|
+---------------+---------------+---------------+---------------+

                                                                 
  e e q e s s q   e e q e s s q   e e q e s s q   e e q e s s q  
+---------------+---------------+---------------+---------------+
|---------------|---------------|---------------|---------------|
|-1-3-3-1-3-3-3-|-1-3-3-1-3-4-3-|-1-3-3-1-3-3-3-|-1-3-3-1-3-4-3-|
+---------------+---------------+---------------+---------------+

                                                                 
  e e q e s s q   e e q e s s q   e e q e s s q   e e q e s s q  
+---------------+---------------+---------------+---------------+
|---------------|---------------|---------------|---------------|
|-1-3-3-1-3-3-3-|-1-3-3-1-3-4-3-|-1-3-3-1-3-3-3-|-1-3-3-1-3-4-3-|
+---------------+---------------+---------------+---------------+

                                                                 
  e e q e s s q   e e q e s s q   e e q e s s q   e e q e s s q  
+---------------+---------------+---------------+---------------+
|---------------|---------------|---------------|---------------|
|-1-3-3-1-3-3-3-|-1-3-3-1-3-4-3-|-1-3-3-1-3-3-3-|-1-3-3-1-3-4-3-|
+---------------+---------------+---------------+---------------+

                                                                                
  e e q e s s q   e e q e s s q   e e q e s s q   e e q e s s q    h h   h q q  
+---------------+---------------+---------------+---------------+------+-------+
|---------------|---------------|---------------|---------------|------|-------|
|-1-3-3-1-3-3-3-|-1-3-3-1-3-4-3-|-1-3-3-1-3-3-3-|-1-3-3-1-3-4-3-|-/8-6-|-8-----|
+---------------+---------------+---------------+---------------+------+---5-8-+

                                                                          
  h h   h q q     h q  q   e e q e s s q   e e q e s s q   e e q e s s q  
+-----+-------+----------+---------------+---------------+---------------+
|-----|-------|----------|---------------|---------------|---------------|
|-8-6-|-8-----|--10-8----|-1-3-3-1-3-3-3-|-1-3-3-1-3-4-3-|-1-3-3-1-3-3-3-|
+-----+---5-8-+-/-----10-+---------------+---------------+---------------+

                                                                 
  e e q e s s q   e e q e s s q   e e q e s s q   e e q e s s q  
+---------------+---------------+---------------+---------------+
|---------------|---------------|---------------|---------------|
|-1-3-3-1-3-4-3-|-1-3-3-1-3-3-3-|-1-3-3-1-3-4-3-|-1-3-3-1-3-3-3-|
+---------------+---------------+---------------+---------------+

                                                                 
  e e q e s s q   e e q e s s q   e e q e s s q   e e q e s s q  
+---------------+---------------+---------------+---------------+
|---------------|---------------|---------------|---------------|
|-1-3-3-1-3-4-3-|-1-3-3-1-3-3-3-|-1-3-3-1-3-4-3-|-1-3-3-1-3-3-3-|
+---------------+---------------+---------------+---------------+

                                                                 
  e e q e s s q   e e q e s s q   e e q e s s q   e e q e s s q  
+---------------+---------------+---------------+---------------+
|---------------|---------------|---------------|---------------|
|-1-3-3-1-3-4-3-|-1-3-3-1-3-3-3-|-1-3-3-1-3-4-3-|-1-3-3-1-3-3-3-|
+---------------+---------------+---------------+---------------+

                                                                             
  e e q e s s q    h h   h q q   h h   h q q    h q  q    h q  q    h  q  q  
+---------------+------+-------+-----+-------+---------+---------+----------+
|---------------|------|-------|-----|-------|---------|---------|----------|
|-1-3-3-1-3-4-3-|-/8-6-|-8-----|-8-6-|-8-----|-10-8----|-10-8----|-12-10----|
+---------------+------+---5-8-+-----+---5-8-+------10-+------10-+-------12-+

                                                                      
   h  q  q    h q  q    h q  q    h  q  q    h  q  q   e e q e s s q  
+----------+---------+---------+----------+----------+---------------+
|----------|---------|---------|----------|----------|---------------|
|-12-10----|-10-8----|-10-8----|-12-10----|-12-10----|-3-5-5-3-5-5-5-|
+-------12-+------10-+------10-+-------12-+-------12-+---------------+

                                                                 
  e e q e s s q   e e q e s s q   e e q e s s q   e e q e s s q  
+---------------+---------------+---------------+---------------+
|---------------|---------------|---------------|---------------|
|-3-5-5-3-5-6-5-|-3-5-5-3-5-5-5-|-3-5-5-3-5-6-5-|-3-5-5-3-5-5-5-|
+---------------+---------------+---------------+---------------+

                                                                 
  e e q e s s q   e e q e s s q   e e q e s s q   e e q e s s q  
+---------------+---------------+---------------+---------------+
|---------------|---------------|---------------|---------------|
|-3-5-5-3-5-6-5-|-3-5-5-3-5-5-5-|-3-5-5-3-5-6-5-|-3-5-5-3-5-5-5-|
+---------------+---------------+---------------+---------------+

                                                                 
  e e q e s s q   e e q e s s q   e e q e s s q   e e q e s s q  
+---------------+---------------+---------------+---------------+
|---------------|---------------|---------------|---------------|
|-3-5-5-3-5-6-5-|-3-5-5-3-5-5-5-|-3-5-5-3-5-6-5-|-3-5-5-3-5-5-5-|
+---------------+---------------+---------------+---------------+

                                                                         
  e e q e s s q   e e q e s s q   e e q e s s q    h h    h q  q    h h  
+---------------+---------------+---------------+------+---------+------+
|---------------|---------------|---------------|------|---------|------|
|-3-5-5-3-5-6-5-|-3-5-5-3-5-5-5-|-3-5-5-3-5-6-5-|-10-8-|-10------|-10-8-|
+---------------+---------------+---------------+------+----7-10-+------+

                                                                               
   h q  q    h h    h q  q    h h    h q  q    h h    h q  q    h h    h q  q  
+---------+------+---------+------+---------+------+---------+------+---------+
|---------|------|---------|------|---------|------|---------|------|---------|
|-10------|-10-8-|-10------|-10-8-|-10------|-10-8-|-10------|-10-8-|-10------|
+----7-10-+------+----7-10-+------+----7-10-+------+----7-10-+------+----7-10-+

                                          
   h h    h q  q    h h    h q  q    w    
+------+---------+------+---------+------+
|------|---------|------|---------|------|
|-10-8-|-10------|-10-8-|-10------|-10\X-|
+------+----7-10-+------+----7-10-+------+

==========================================================================

          Created using "The Bass Tab Creator" by Mario D'Alessio
     __
   +|oo|+       Notes:                        
   +|oo|+               w = Whole  h = Half  q = Quarter
     ||                 e = 8th    s = 16th  t = 32nd  x = 64th
     ||
     ||                 Capitol notes are dotted notes (1.5 x duration)
     ||
     ||             n
     ||         +----+                     +----+
     ||         |*--*+  = MEASURE          |4:--|  = TIME
  _  ||  _      |*--*+    REPEATS          |4:--|    SIGNATURES
  \\_||_//      +----+   (n=Num Repeats)   +----+
   | [] |
   | || |       + = TIE         ^  = TRIPLET           ^ = BEND
  /  []  \      H = HAMMER ON   \  = SLIDE TO FRET     R = REST
  \______/      P = PULL OFF    /X = SLIDE TO NOWHERE  ~ = TRILL
     
Добавлено: 11.07.2013
Другие материалы по этой песне:
  • Аккорды и текст

Страница создана 11.07.2013
http://primanota.ru/steve-taylor/curses-chords.htm
Привет, Гость.
Предлагаем пройти революционный курс по гитаре.
Подарок от PrimaNota.Ru, забирай!