PrimaNota.ru - самый крупный в мире бесплатный архив песенных текстов, аккордов, табулатур и нот


Steve Taylor And The Perfect Foil - Double Negative - таба, видео

Регистрация Запомнить меня
Войти через:  Facebook Google Twitter Vk Yandex Mail.ru

Steve Taylor And The Perfect Foil - Double Negative - таба, видео

Печатать
Просмотров: 65
Double Negative by
Steve Taylor and The Perfect Foil

Contact me at: 
joshua1vs89@icloud.com 

Intro:

e|-----------------| 
B|-----------------| 
G|-----------------| 
D|---000-000-000---| 2X
A|-----------------| 
E|-----------------| 

e|---------------------| 
B|---------------------| 
G|---9b9-7---4b4-202---| 
D|---0-0-0---0-0-000---| 2X
A|---------------------| 
E|---------------------| 

The intro is best played with 
reverb. It sounds a lot like a 
sitar in the recording, which 
adds to this song's unique flavor. 

Verses:

e|-----------------| 
B|-----------------| 
G|-----------------| 
D|---000-000-000---| 
A|-----------------| 
E|-----------------| 
(Been a nice trip...)

The tab above is repeated somewhat 
monotonously throughout the first
parts of all of the verses.

e|----------------| 
B|----------------| 
G|----0---0---0---| 
D|---3---3---3----| 
A|----------------| 
E|----------------| 
(the push pull...)

Chorus:
     D           C      G 
e|---2-----------0------2---|
B|---3-----------1------2---|
G|---2-----------0------0---|
D|---0-----------2------0---|
A|---0-----------3------2---|
E|----------------------3---|
(Don't you come near me now)

     G            C          D
e|---2------------0----------2---| 
B|---2------------1----------3---| 
G|---0------------0----------2---| 
D|---0------------2----------0---| 
A|---2------------3----------0---|
E|---3---------------------------|
  (Don't you come through the wall) 
     D         C         G 
e|---2---------0---------2---|
B|---3---------1---------2---|
G|---2---------0---------0---|
D|---0---------2---------0---|
A|---0---------3---------2---|
E|-----------------------3---|
  (I can't let go of the scene)
 
     G         C         D
e|---2---------0---------2---| 
B|---2---------1---------3---| 
G|---0---------0---------2---| 
D|---0---------2---------0---| 
A|---2---------3---------0---|
E|---3-----------------------|
 (I can't stop hollering unclean)

Bridge:

e|---10-------------| 
B|-----10-13--7-9---| 
G|-----------9------| 
D|------------------| 
A|------------------| 
E|------------------| 
 (Bells are ringing...)

e|---10------------------| 
B|-----10-8-13-----------| 
G|-------------10-12-7---| 
D|-----------------------| 
A|-----------------------| 
E|-----------------------| 
(Is it Easter or the start...)

Complete lyrics:

Verse 1: 
Been a nice trip 
Is this our stop? 
I'd leave the stage 
But the curtain won't drop 
The chemicals took my nerve 
I've given up 
what the saints preserve 
The push pull 
The sturm and the drang
I can't play a lick 
But I'm strumming along 
Sing it with me 
You look uptight 
Now is that a yawn 
Or are you ready to bite?

Verse 2: 
Been a nice trip 
As hinterlands go 
I took the hint 
And I swallowed it whole 
The chemicals color the facts 
On your mark, get set, relax 
The negatives double 
Double that again 
I did the math, I need a bath 
Sing it with me 
The widows might 
Now is that a yawn 
Or are you ready to bite? 

Chorus:
Don't you come near me now 
Don't you come through the wall 
I can't let go of the scene 
I can't stop hollerin' unclean
Don't you come near me now         
I've never not needed you more
Cursed with a sense of place 
I wanna see the look 
on the old man's face

Bridge: 
Bells are ringing 
In the town of 
the terminal heartache 
Bells are ringing 
Is it Easter 
Or the start of an earthquake? 
Bells are ringing 
In the town of 
the terminal heartache 
Bells are ringing 
Is it Easter 
Or the start of an earthquake? 

Verse 3: 
Been a long trip 
The hinterlands know 
You took the hit 
Then I quit 
Now I'm sick as a dog 
But I'll still fetch 
You won't make it stop 
But you pity the wretch 
And how do you love? 
We both know 
What your kids are made of 
60 parts water, 40 parts guile 
I've been found 
I wanna drown 

Chorus:
Cursed with a sense of place 
I left this town in disgrace 
Don't you come near me now 
I've never not needed you more
But I can't let go of the scene 
I can't stop hollering unclean 

Bridge: 
Bells are ringing 
In the town of 
the terminal heartache 
Bells are ringing 
Is it Easter 
Or the start of an earthquake?

| /  slide up
| \  slide down
| h  hammer-on
| p  pull-off
| ~  vibrato
| +  harmonic
| x  Mute note
Добавлено: 29.11.2015
Вам также может быть интересно:
Другие материалы по этой песне:
  • Аккорды и текст

Страница создана 29.11.2015
http://primanota.ru/steve-taylor-and-perfect-foil/double-negative-chords.htm
Привет, Гость.
Предлагаем пройти революционный курс по гитаре.
Подарок от PrimaNota.Ru, забирай!