PrimaNota.ru - самый крупный в мире бесплатный архив песенных текстов, аккордов, табулатур и нот


Steve Rogers Band - Polvere Doro - аккорды и текст, видео

Регистрация Запомнить меня
Войти через:  Facebook Google Twitter Vk Yandex Mail.ru

Steve Rogers Band - Polvere Doro - аккорды и текст, видео

Печатать
Просмотров: 73
Polvere Doro
Steve Rogers Band
Intro:
C7M/A    D  (4v)
C7M/A            D 
Vieni a dormire domani te ne andrai
C7M/A            D
Fammi guardare tutta la fantasia che hai
C7M/A        D
Posso cantare come vorresti tu
C7M/A        D                     G
Parli d'amore ma non ne posso dare più
           C Em                   C   C/B
Quello che ho non è ciò che avevo no
Am              Em
Hanno già preso molto sai
C             D           G
Tutto compreso restituito mai

G               Cadd9
Questo freddo che ho
G               Cadd9      /B
Questa voglia di polvere d'oro
Am                      Em
Nemmeno il tempo per difendersi bene
C                       D
E per guardarli andare via

C7M/A        D 
Fatti sentire fatti convincere
C7M/A        D 
Non mi fermare non mi lasciare solo mai
C7M/A       D
Devo mentire devo resistere
C7M/A       D                   G
Devo colpire ma non faccio male mai
           C Em                   C   C/B
Quello che so non me l'hanno detto no
Am             Em
Hanno nascosto molto sai
C              D               G
Rubano un posto che non danno mai

G               Cadd9
Questo freddo che ho
G               Cadd9      /B
Questa voglia di polvere d'oro
Am                      Em
Nemmeno il tempo per illudersi piano
C                       D
E per lasciarsi portar via

Guitar solo
C7M/A    D (2v)
G  C  Em  C  C/B

Am              Em
Fanno pagare molto sai
C             D             G
Non li cercare non ci sono mai

G               Cadd9
Quanto freddo che ho
G               Cadd9      /B
Quanta voglia di polvere d'oro
Am                    Em
Non è più tempo di combattere
    C                     D
Loro sono scappati tutti via

G               Cadd9
Questo freddo che ho
G               Cadd9      /B
Questa voglia di polvere d'oro
Am                     Em
Nemmeno il tempo per illudersi un poco
C                       D
E per guardarli andare via

G  Cadd9
G  Cadd9  /B
Am  Em
C  D 
ad lib 

C7M/A       D
|-7--|     |-0-|
|-8--|     |-7-|
|-9--|     |-7-|
|-10-|     |-0-|
|-0--|     |-X-|
|-X--|     |-X-|


Guitar solo
||-7--------------------------------------------------------------------------------|
||-10b-r--8-10----------------------------------------------------------------------|
||-------------9--------7h-9--------------------------------------------------------|
||---------------------------7------------------------------------------------------|
||----------------------------------------------------------------------------------|
||----------------------------------------------------------------------------------|

||----------------------------------------------------------------------------------|
||---------------------------------8--7h8p7--------------8-7------------------------|
||------------------------------------------9-7-9/11---------9-7--------------------|
||--------5-7-----------7-9-10------------------------------------------------------|
||-5-7-8--------7-8--10-------------------------------------------------------------|
||----------------------------------------------------------------------------------|

||---------------------7-8-9-10-----------------------------------------------------|
||-10br-8-10---8---10b-----------10b--8-10---8----8---------------------------------|
||-----------9-----------------------------9----------------------------------------|
||----------------------------------------------------------------------------------|
||----------------------------------------------------------------------------------|
||----------------------------------------------------------------------------------|

||-----12h14p12--12-----------------------------------------------------------------|
||-15b--------------15-12------15-12------------------------------------------------|
||------------------------14---------14-12------14-12----------------------------12-|
||-------------------------------------------14-------14-12----------------12h14----|
||------------------------------------------------------------12\10--12h14----------|
||----------------------------------------------------------------------------------|

||-14-b-r---------------------------------------------------------------------------|
||--------15------------------------------------------------------------------------|
||-----------/14--/9----------------------------------------------------------------|
||----------------------------------------------------------------------------------|
||----------------------------------------------------------------------------------|
||----------------------------------------------------------------------------------|
Добавлено: 16.05.2016
Вам также может быть интересно:
Другие материалы по этой песне:
  • Аккорды и текст

Страница создана 16.05.2016
http://primanota.ru/steve-rogers-band/polvere-doro-chords.htm
Привет, Гость.
Предлагаем пройти революционный курс по гитаре.
Подарок от PrimaNota.Ru, забирай!