PrimaNota.ru - самый крупный в мире бесплатный архив песенных текстов, аккордов, табулатур и нот


Steve Poltz - Lockjaw - таба, видео

Регистрация Запомнить меня
Войти через:  Facebook Google Twitter Vk Yandex Mail.ru

Steve Poltz - Lockjaw - таба, видео

Печатать
Просмотров: 71
		   Author/Artist: Steve Poltz
Title: Lockjaw
Album: Taking the World by Donkey
Transcribed by: Joe Dubberly
Email: joedubberly@hotmail.com

Intro and Verses are played liked this.
------------------------------------------------------------------------------
---0---0---0----------0---0---0---0-------------------------------------------
--0-0-0-0-0-0---0----0-0-0-0-0-0-0-0------------------------------------------
-4---2---0-----0-0--9---7---5---4---------------------------------------------
--------------2---------------------------------------------------------------
------------------------------------------------------------------------------

Verse:

look outside the sky is grey
And the clouds are filled with rain
It makes me jealous how it opens up and
I^Òm stuck inside again
I^Òm like a sitcom polyester family
Inside my t.v.

Pre Chorus:
C                    D
I^Òm the boy in the bubble and you
G    G/F#   Em
Can^Òt touch me
C
I^Òll never open up
    D
I^Òm never coming out and

Chorus:
G   F          C                D
I fear every time when the government calls
G     F      C            D
I^Òm absent hiding in my closet
G    F        C          D
I feel like a news correspondent
G      F           C           D
Got lockjaw can^Òt tell you that I love you
G      F           C           D
Got lockjaw can^Òt tell you that I love you

Verse:

I stand in the mirror and I pull my hair out
I can^Òt control my thoughts
I wonder why my eyes are dry as a desert
My stomach^Òs tied in knots

Pre Chorus:
C                                  D
I^Òm like a freak show sitting on a sidewalk
G      G/F#   Em
My outline drawn in chalk, yeah
C                             D
I freeze every time I hear the phone ring
G     G/F#   Em
I^Òll never hear you knock
C
I^Òll never open up
     D
I^Òm never coming out and

Chorus:
G   F          C                D
I fear every time when the government calls
G     F      C            D
I^Òm absent hiding in my closet
G    F        C          D
I feel like a news correspondent
G      F           C           D
Got lockjaw can^Òt tell you that I love you
G      F           C           D
Got lockjaw can^Òt tell you that I love you

Verse:

I thumb through magazines to garner love facts
Cosmo^Òs got seven tips
I pick up the phone and I try to call you
No words just frozen lips, yeah

Pre Chorus:
C                               D
I send a message, but you know it^Òs always cryptic
G    G/F#    Em
No sound on my t.v. yeah
C                     D
I^Òm the boy in the bubble and you
G     G/F#  Em
Can^Òt touch me
C
I^Òll never open up
     D
I^Òm never coming out and

Chorus:
G   F          C                D
I fear every time when the government calls
G     F      C            D
I^Òm absent hiding in my closet
G    F        C          D
I feel like a news correspondent
G      F           C           D
Got lockjaw can^Òt tell you that I love you
G      F           C           D
Got lockjaw can^Òt tell you that I love you
G      F           C             D
Got lockjaw (can^Òt tell you that I love you)
G      F           C             D
Got lockjaw (can^Òt tell you that I love you)
   D      End on G I would assume:)
I love you


-------2----3----3----------1--------------3----------------------------------
-1-----3----3----3----------1--------------3----------------------------------
-2-----2--------------------1-2-----------------------------------------------
----------------------2-----1-3-----------------------------------------------
-3--------------------2-----1-3-----------------------------------------------
------------3----2----------1--------------1----------------------------------
C     D    G   G/F#   Em    F        You can also Play the F like this for 
picking

_________________________________________________________________
     
Добавлено: 28.07.2013
Другие материалы по этой песне:
  • Аккорды и текст

Страница создана 28.07.2013
http://primanota.ru/steve-poltz/lockjaw-chords.htm
Привет, Гость.
Предлагаем пройти революционный курс по гитаре.
Подарок от PrimaNota.Ru, забирай!