PrimaNota.ru - самый крупный в мире бесплатный архив песенных текстов, аккордов, табулатур и нот


Steve Perry - Foolih Heart - таба, видео

Регистрация Запомнить меня
Войти через:  Facebook Google Twitter Vk Yandex Mail.ru

Steve Perry - Foolih Heart - таба, видео

Печатать
Просмотров: 61
Intro:

     C7                       F/G
e |---------------------------------------------------------------------
B |--1-0-----0--1--0-------------1---1-1-1---1--------------------------
G |--0----2-----------2--0-0-----0---0-0-0---0--------------------------
D |------------------------------------------0--------------------------
A |--3-3--3-----3-----3----------------------2--------------------------
E |----------------------------3-----3-3-3---3--------------------------
                                             ^
     (yeah)

Verse:

     C7                       Em            C#(?)
e |---------------------------------------------------------------------
B |--1-0-----0--1--0------------0-----0-0------------5------------------
G |--0----2-----------2--0------0-----0-0---------3---------------------
D |--------------------------------------------2------------------------
A |--3-3--3-----3-----3---------------------4---------------------------
E |---------------------------0-----0-----------------------------------

It's over and done...

     Dm7(?)            F/G             C7
e |----0----3h0---------------------------------------------------------
B |----1--------1---------1---1-1-0------1-0----------------------------
G |---------------2-------0---0-0-0------0---2---0----------------------
D |--0----0------------------------------------2------------------------
A |------------------------------------3--------------------------------
E |--------------------0--3---3-3-3-------------------------------------


Bridge:

                Dm7(?)              C
e |---------------------------------------------------------------------
B |-------------6-6----8-6----6-------0------0--------------------------
G |----0-2-3----5-5-----------5-------0------0--------------------------
D |--2------------------------------------------------------------------
A |-------------5----5------5-------3----3-3----------------------------
E |---------------------------------------------------------------------

and where are you now...

       Dm7(?)       C
e |---------------------------------|----------------------------
B |------6-6---6------0-0----0------|----------------------------
G |.-----5-5---5------0-0----0-----.|---[repeat]-----------------
D |.-------------------------------.|----------------------------
A |----5-----5------3------3--------|----------------------------
E |---------------------------------|----------------------------


                    F/G
e |---------------------------------------------------------------------
B |-------------------1---1-1-0---1-------------------------------------
G |-------------------0---0-0-0---0-----------0--2--4-------------------
D |---------------------------------------------------------------------
A |----------------------------------------------0--2-------------------
E |-----------------3-----3-3-3---3-----------3-------------------------

you'll never see me fall apart...    ...heart it's just

Chorus:
     Am           Em
e |---------------------------|-----------------------------------------
B |----1-----1------0-----0---|-----------------------------------------
G |.---2-----2------0-----0--.|--[repeat]-------------------------------
D |.-------------------------.|-----------------------------------------
A |--0---0-0------------------|-----------------------------------------
E |---------------0---0-0-----|-----------------------------------------


       F       Em            Am
e |---------------------------------------------------------------------
B |------1-------0-------------1-----1----------------------------------
G |------2-------0-------------2-----2----------------------------------
D |---------------------------------------------------------------------
A |--------------------------0---0-0------------------------------------
E |--0-1-----1-0--------------------------------------------------------

   come back come home to me darlin' you know there'll be 

     F/G                F        F/G            G/F(?)
e |---------------------------------------------------------------------
B |----1---1-1-----1--------1------1-------1--------0-------------------
G |----0---0-0-----0------2--------0-------0------0---------------------
D |---------------------3-----------------------3-----------------------
A |---------------------------------------------------------------------
E |--3---3-3-3---3---------------3---3-3-3------------------------------

no body left...


Repeat Intro + Verse + Chorus ad lib.








e |---------------------------------------------------------------------
B |---------------------------------------------------------------------
G |---------------------------------------------------------------------
D |---------------------------------------------------------------------
A |---------------------------------------------------------------------
E |---------------------------------------------------------------------




Добавлено: 17.08.2013
Другие материалы по этой песне:
  • Аккорды и текст

Страница создана 17.08.2013
http://primanota.ru/steve-perry/foolih-heart-chords.htm
Привет, Гость.
Предлагаем пройти революционный курс по гитаре.
Подарок от PrimaNota.Ru, забирай!