PrimaNota.ru - самый крупный в мире бесплатный архив песенных текстов, аккордов, табулатур и нот


Steve Nelson And Jack Rollins - Frosty The Snowman - таба, видео

Регистрация Запомнить меня
Войти через:  Facebook Google Twitter Vk Yandex Mail.ru

Steve Nelson And Jack Rollins - Frosty The Snowman - таба, видео

Печатать
Просмотров: 51
-------------------------------------------------------------------------------
                             Frosty the snowman - Steve Nelson and Jack Rollins
-------------------------------------------------------------------------------
Tabbed by: Nick Sutherland


Tuning:standard

e|---------------------------------------------------------------------------|
B|------------------------------------------3--------------------------------|
G|-0---------------0----5------4----5-------------5-----4-------2--------0---|
D|------2-----3--------------------------------------------------------------|verse
A|---------------------------------------------------------------------------|
E|---------------------------------------------------------------------------|

e|---------------------------------------------------------------------------|
B|------------3--------------------------------------------------------------|
G|----4---5------5----4-----2----2-----0------5----------0------2----0-------|
D|--------------------------------------------------2------------------------|verse
A|---------------------------------------------------------------------------|
E|---------------------------------------------------------------------------|

e|---------------------------------------------------------------------------|
B|---------------------------------------------------------------------------|
G|---------------0------------2nd time end like:-----------------------------|
D|--3---2--3---------------------------------------3---2---0-----------------|x2
A|---------------------------------------------------------------3-----------|
E|---------------------------------------------------------------------------|

e|---------------------------------------------------------------------------|
B|---------------------------------------------------------------------------|
G|----------2----2------5--5---4---2--0--------------2---0-------------------|bridge
D|----------------------------------------2----3-------------3----2----------|
A|----3----------------------------------------------------------------------|
E|---------------------------------------------------------------------------|

e|---------------------------------------------------------------------------|
B|--------------------------------3-----3-3-3--------------------------------|bridge
G|---------------0--0----4---4----------------5---4----2----0----------------|
D|---2---0---0---------------------------------------------------------------|
A|---------------------------------------------------------------------------|
E|---------------------------------------------------------------------------|

e|-------Verse one more time with 2nd ending---------------------------------|
B|---------------------------------------------------------------------------|
G|---------------------------------------------------------------------------|
D|---------------------------------------------------------------------------|
A|---------------------------------------------------------------------------|
E|---------------------------------------------------------------------------|

e|---------------------------------------------------------------------------|
B|---------------------------------------------------------------------------|
G|---------------------------------------------------------------------------|
D|---------------------------------------------------------------------------|
A|---------------------------------------------------------------------------|
E|---------------------------------------------------------------------------|

e|---------------------------------------------------------------------------|
B|---------------------------------------------------------------------------|
G|---------------------------------------------------------------------------|
D|---------------------------------------------------------------------------|
A|---------------------------------------------------------------------------|
E|---------------------------------------------------------------------------|


************************************

| /   slide up
| \   slide down
| h   hammer-on
| p   pull-off
| ~   vibrato
| +   harmonic
| x   Mute note
| b   Bend
| pb  Pre-bend
| br  Bend release
| pbr Pre-bend release
| brb Bend release bend

************************************
Добавлено: 18.06.2016
Другие материалы по этой песне:
  • Аккорды и текст

Страница создана 18.06.2016
http://primanota.ru/steve-nelson-and-jack-rollins/frosty-snowman-chords.htm
Привет, Гость.
Предлагаем пройти революционный курс по гитаре.
Подарок от PrimaNota.Ru, забирай!