PrimaNota.ru - самый крупный в мире бесплатный архив песенных текстов, аккордов, табулатур и нот


Steve N Seagulls - The Trooper - таба, видео

Регистрация Запомнить меня
Войти через:  Facebook Google Twitter Vk Yandex Mail.ru

Steve N Seagulls - The Trooper - таба, видео

Печатать
Просмотров: 46
Авторы музыки: Steve Harris
Авторы текста: Steve Harris
Song name: The Trooper (Iron Maiden cover)
Album: Farm Machine
Artist: Steve 'N' Seagulls

Tuning Standard+capo on 3.


Intro 1: 

e-------------------------------------------------------------------------------------|
B-------------------------------------------------------------------------------------|
G--12----------12121212----------12121212-----------12121212-----------12121212-------|
D--12--Break---12121212--Break---12121212---Break---12121212---Break---12121212-------|
A--10----------10101010----------10101010-----------10101010-----------10101010-------|
E-------------------------------------------------------------------------------------|

Intro 2:

e--------------------------------------------------------------------------------------------|
B--------------------------------------------------------------------------------------------|
G-121212121212-10101012-121212121212-1010108-8888888-10101012-121212121212-10101012----------|
D-121212121212-10101012-121212121212-1010108-8888888-10101012-121212121212-10101012----------|
A-101010101010-8-8-8-10-101010101010-8-8-8-6-6666666-8-8-8-10-101010101010-8-8-8-10----------|
E--------------------------------------------------------------------------------------------|

No guitar in the first half of the verse just.


Verse: 00.37

e------------------------------------------------|
B------------------------------------------------|
G--12>----1012>----108>----1012>-----------------|
D--12>----1012>----108>----1012>-----------------|
A--10>----8-10>----8-6>----8-10>-----------------|
E------------------------------------------------|


Chords:

e--------------------------------------------------|
B--------------------------------------------------|
G--10>-----12>-------10>------12>-----12-----------|
D--10>-----12>-------10>------12>-----12-----------|
A--8>------10>-------8>-------10>-----10-----------|
E--------------------------------------------------|

After chords do Íntro 2, verse and chords


The parts from here i'm not sure if thy are right but it sounds right to me.
After 2nd chords stay on this chord while the banjo solo is on:

e--------|
B--------|
G--12----|
D--12----|
A--10----|
E--------|

Then the intro 2 again one time and then switch to:

e-------------------------------------------------------------------------------------------------|
B-------------------------------------------------------------------------------------------------|
G-141414141414-12121214-141414141414-12121210-10101010101010-12121214-141414141414-12121214-------|
D-141414141414-12121214-141414141414-12121210-10101010101010-12121214-141414141414-12121214-------|
A-121212121212-10101012-121212121212-1010108--8-8-8-8-8-8-8--10101012-121212121212-10101012-------|
E-------------------------------------------------------------------------------------------------|

Verse 3:

e-----------------------------------------|
B-----------------------------------------|
G--14>----1214>-----1210>---1214>---------|
D--14>----1214>-----1210>---1214>---------|
A--12>----1012>-----108>----1012>---------|
E-----------------------------------------|



Chords 3:

e-------------------------------------|
B-------------------------------------|
G-12>-----14>------12>------14>-------|
D-12>-----14>------12>------14>-------|
A-10>-----12>------10>------12>-------|
E-------------------------------------|

End no guitar.
Добавлено: 24.10.2015
Другие материалы по этой песне:
  • Аккорды и текст

Страница создана 24.10.2015
http://primanota.ru/steve-n-seagulls/trooper-chords.htm
Привет, Гость.
Предлагаем пройти революционный курс по гитаре.
Подарок от PrimaNota.Ru, забирай!