PrimaNota.ru - самый крупный в мире бесплатный архив песенных текстов, аккордов, табулатур и нот


Steve Morse - Arena Rock - аккорды и текст, таба, видео

Регистрация Запомнить меня
Войти через:  Facebook Google Twitter Vk Yandex Mail.ru

Steve Morse - Arena Rock - аккорды и текст, таба, видео

Печатать
Просмотров: 107
Arena Rock
Steve Morse
		   e: Fri, 24 Apr 1998 23:55:47 -0300

Visit Gui's home page
www.geocities.com/SunsetStrip/Arena/6496 - All about Steve Morse
guiroxo@provida.org.br

ARENA ROCK - Steve Morse Band
Transcribed by someone with too much spare time.
A.H and P.M not notated. you know where they go.



E|-2-2-2-2-3-3--|--2-2-------|---------|----------|-2-2-3-3-|-2-2-----|-------|-
B|-3-3-3-3-3-3--|--3-3-2-2---|-3-3-3-3-|-3-3-2-2--|-3-3-3-3-|-3-3-2-2-|-3-3-3-|-
G|-4-4-4-4-4-4--|--2-2-2-2---|-2-2-0-0-|-2-2-2-2--|-4-4-4-4-|-2-2-2-2-|-2-2-0-|-
D|-4-4-4-4-5-5--|--0-0-2-2---|-0-0-0-0-|-0-0-2-2--|-4-4-5-5-|-0-0-2-2-|-0-0-0-|-
A|-2-2-2-2-5-5--|------0-0---|-----2-2-|-----0-0--|-2-2-5-5-|-----0-0-|-----2-|-
E|---------3-3--|------------|-2-2-3-3-|----------|-----3-3-|---------|---2-3-|-





E|-0-0-0-0-0-0-|--------------|----------------|----------------|--------------
B|-0-0-1-1-0-0-|-5b7~-5-3---3-|-5~-5b7--r3-2---|-3~-3-----------|--------------
G|-0-0-0-0-0-0-|----------4---|--------------2-|------2b4--r----|--------------
D|-2-2-2-2-2-2-|--------------|----------------|------------5-4-|-5~-------4-2h
A|-2-2-3-3-2-2-|--------------|----------------|----------------|--------------
E|-0-0-----0-0-|--------------|----------------|----------------|--------------





E|-------|----------------|-----------------------|----------------|-----------
B|-------|---5b7--5-3---3-|-------5~-5b7--r-3-2---|-3~-3-----------|-----------
G|-------|------------4---|---------------------2-|------2b4--r----|-----------
D|-4p2---|----------------|-----------------------|------------5-4-|-5~--4-2h4p
A|-----5-|-2--------------|-----------------------|----------------|-----------
E|-------|----------------|-----------------------|----------------|-----------





E|------||---------|----------------|------|------|----||------------------|---
B|------||---------|----------------|------|------|----||*-----------------|---
G|------||---------|----------------|------|------|----||----2---1h2p1-----|---
D|-2----||---------|----------------|------|------|----||--------------4---|---
A|---5--||-2-------|----------------|------|------|----||*-2---2---------2-|-2-
E|------||---------|----------------|------|------|----||------------------|---



                      rhythm 1

E|----------------||-||------------------|-----------------|-----------------|-
B|---------------*||-||*-----------------|-----------------|-----------------|-
G|----------------||-||----2---1h2p1-----|-----------------|---2---1h2p1-----|-
D|-2---2h3p2------||-||--------------4---|---2---2h3p2-----|-------------4---|-
A|---2-------5-2-*||-||*-2---2---------2-|-2---2-------5-2-|-2---2---------2-|-
E|----------------||-||------------------|-----------------|-----------------|-





E|-----------------|-----------------|-----------------|-----------------|-----
B|-----------------|-----------------|-----------------|-----------------|-----
G|-----------------|---2---1h2p1-----|-----------------|---4---2h4p2-----|-----
D|---2---2h3p2-----|-------------4---|-------2h4p2-----|-------------4-2-|---2-
A|-2---2-------5-2-|---------------2-|---5---------5-2-|-----------------|-----
E|-----------------|-0---0-----------|-0---0-----------|-3---3-----------|-5---



                           melody over rhythm 1

E|--------------||-----||--17~---16~-|-14~--12---14-|-14h16-----------17~|--16~
B|-------------*||-----||*-15~---17~-|-12~--14---12-|-12-------12~----15~|--17~
G|--------------||-----||------------|--------------|----------11~-------|-----
D|---2h4p2------||-----||------------|--------------|--------------------|-----
A|---------5-2-*||-----||*-----------|--------------|--------------------|-----
E|-5------------||-----||------------|--------------|--------------------|-----



    1st time                                                 2nd time

E|---|-14~---12----10-|-------10h12--12---12~------------17--||-14~---12------|-
B|---|-12~---14-----8-|--------8----------10~------------15-*||-12~---14---15-|-
G|---|----------------|--------------------------------------||------------12-|-
D|---|----------------|--------------------------------------||---------------|-
A|---|----------------|-------------------------------------*||---------------|-
E|---|----------------|--------------------------------------||---------------|-





E|-19-----19-----------||-------------------------------|-------------------|---
B|-15-----17-----------||-------------------------------|-------------------|---
G|---------------------||-------------------------------|-----1b2-1---------|---
D|---------------------||-----------------2-4---2h4p2---|-2---------4-2---4~|---
A|---------------------||-------------2h4-------------4-|---0---------------|---
E|---------------------||-----------2---------2---------|---------------2---|-2-





E|-------------|-------2---0-------|--------------------------------|-----------
B|-------------|-----5-------4-----|-2------------------------------|-----------
G|-------------|---2-----4-----4---|--------------------------------|-----1b2-1-
D|-2h4p2-------|-6---------------2-|------------------2-4---2h4p2---|-2---------
A|-------6-4---|-------------------|--------------2h4-------------4-|---0-------
E|-----------2-|-------------------|------------2---------2---------|-----------





E|---------|-----------------|----------------------------------|---------------
B|---------|-----------------|-----------5(17)-------------7(19)|---------------
G|---------|-------2h4p2-----|------4(16)----------9b11(21)-----|---------------
D|-4-2---4~|-------------4---|-7(19)----------9(21)-------------|-------------7-
A|---------|---2h4-----------|----------------------------------|---------7h9---
E|-----2---|-2-------------2-|----------------------------------|-------7-------





E|--------------|-------------------|--------2------5-2--------|------------||-
B|--------------|-------------------|------5-----------------5-|-2----------||-
G|--------------|-------------------|-2b--r----4b--r----2b--r--|--------4-1-||-
D|--9---7h9p7-6-|-----4h6-4---------|--------------------------|---2b--r----||-
A|--------------|-7-----------7-6-4-|--------------------------|------------||-
E|----0---------|---5-------7-------|--------------------------|------------||-





E|-------------------------|---------------|-------------------|----------||---
B|-------------------------|---------------|-------------------|----------||---
G|-------------------------|-----2~--------|-4-4-4-4--4~---2-2-|-2-2-6----||---
D|---------4-4-4-4-6---4-4-|-4-4-0~--------|-2-2-2-2--5~---0-0-|-0-0-2----||---
A|---------2-2-2-2-2---2-2-|-2-2-----------|-2-2-2-2--3~-------|-----0----||---
E|-----------------0-------|-----3~--------|-0-0-0-0-----------|----------||---





E|------------------------|----------------|----------------|------------------
B|-----------5b7~-5-3---3-|-5~-5b7--r3-2---|-3~-3-----------|------------------
G|--------------------4---|--------------2-|------2b4--r----|------------------
D|------------------------|----------------|------------5-4-|-5~-------4-2h4p2-
A|------------------------|----------------|----------------|------------------
E|------------------------|----------------|----------------|------------------





E|---|----------------|-----------------------|----------------|----------------
B|---|---5b7--5-3---3-|-------5~-5b7--r-3-2---|-3~-3-----------|----------------
G|---|------------4---|---------------------2-|------2b4--r----|----------------
D|---|----------------|-----------------------|------------5-4-|-5~-------------
A|-5-|-2--------------|-----------------------|----------------|----------------
E|---|----------------|-----------------------|----------------|----------------





E|-----------------------------|---------14--12b14~---15-10----------10-14-10----
B|-----------------------------|----------------------------12-10-12----------12-
G|-----------------------------|-------------------------------------------------
D|-----------------------------|-------------------------------------------------
A|-----------------------------|-------------------------------------------------
E|-----------------------------|-------------------------------------------------





E|-------10-|-12--10b12~---14-15-|-17----17----15b--r-14-------|--------------|-
B|----12----|--------------------|-----------------------17-15-|-17-----------|-
G|-11-------|--------------------|----14----14-----------------|--------------|-
D|----------|--------------------|-----------------------------|--------------|-
A|----------|--------------------|-----------------------------|--------------|-
E|----------|--------------------|-----------------------------|--------------|-





E|----14-10----------10-14-10----------10-14b15--r12-10-|-12~-----------------14-
B|----------12----12----------12----12------------------|------------14-15-17----
G|-------------11----------------12---------------------|------------------------
D|------------------------------------------------------|------------------------
A|------------------------------------------------------|------------------------
E|------------------------------------------------------|------------------------





E|-15-16-|-17-16b17~---17b19--r-15-14-15-19~--------|----------------------9--|-
B|-------|------------------------------------------|---10b12------------7----|-
G|-------|------------------------------------------|-------------------------|-
D|-------|------------------------------------------|-------------------------|-
A|-------|------------------------------------------|-------------------------|-
E|-------|------------------------------------------|-------------------------|-





E----10b12--|-10-7------7----------------------------|------------------------|-
B-----------|------10-7---10-7-----------------------|------------------------|-
G-----------|------------------10-9-7-9-10-9b11-7----|------------------------|-
D-----------|-------------------------------------9~-|--------7-8-9-12-9------|-
A-----------|----------------------------------------|--7-8-9------------11-9-|-
E-----------|----------------------------------------|------------------------|-





E|-----------------------|-------12b14--r-p10-------|-15p10-------14-10-------12-
B|----------12-----------|-12-----------------12p10-|-------12-10-------12-10----
G|-----11------10p9------|--------------------------|----------------------------
D|---9--------------12-9-|--------------------------|----------------------------
A|-----------------------|--------------------------|----------------------------
E|-----------------------|--------------------------|----------------------------





E|-11-10----8-9------|-----------------------------------------------------------
B|-------10-----10---|-----------7h8h9-----------------------------9-10-12-14b15-
G|-----------------9-|-----------------9-8-7-5-6-7---------9-11-12---------------
D|-------------------|-----------------------------9-10-11-----------------------
A|-------------------|-----------------------------------------------------------
E|-------------------|-----------------------------------------------------------





E-|-----14--------|-------------9b10--r|-------------7-----12-7-----10-9-8-7----
B-|--------14b16--|-12~-14b16----------|---------------9-7------9-7----------10-
G-|---------------|--------------------|----------------------------------------
D-|---------------|--------------------|----------------------------------------
A-|---------------|--------------------|----------------------------------------
E-|---------------|--------------------|----------------------------------------





E|------------|------------------------------12-14-|--14-13-12-------16--------
B|-9-7--------|------------------------12-14-------|-----------15-12----14b15--
G|-----10-9-7-|---------------11-13-14-------------|---------------------------
D|------------|-9~---11-12-14----------------------|---------------------------
A|------------|------------------------------------|---------------------------
E|------------|------------------------------------|---------------------------





E|----|------------------17b19--|--r-14---------------------------|-------------
B|-14-|-----12--14b15-----------|-------15------------------------|-------------
G|----|-------------------------|----------16-16-14---------------|----------14-
D|----|-------------------------|-------------------16-14---------|-14-16-17----
A|----|-------------------------|---------------------------------|-------------
E|----|-------------------------|-------------------------17-15~--|-------------





E|----------------------------------17-18-19-21b22--19~|---------------------|-
B|-------------------------17-19-20--------------------|---------------------|-
G|-15-16----------16-18-19-----------------------------|---------------------|-
D|-------16-17-19--------------------------------------|-----4-4-4-4-6---4-4-|-
A|-----------------------------------------------------|-----2-2-2-2-2---2-2-|-
E|-----------------------------------------------------|-------------0-------|-





E|---------------|-------------------|------------|-----------2-2-2-2-4---2-2-|-
B|---------------|-------------------|------------|-----------0-0-0-0-0---0-0-|-
G|-----2~--------|-4-4-4-4--4~---2-2-|-2-2-6------|-----------4-4-4-4-4---4-4-|-
D|-4-4-0~--------|-2-2-2-2--5~---0-0-|-0-0-2------|-----------4-4-4-4-2---4-4-|-
A|-2-2-----------|-2-2-2-2--3~-------|-----0------|-------------------2-------|-
E|-----3~--------|-0-0-0-0-----------|------------|-------------------0-------|-





E|-2-2-5------|-7-7-7-7--7~-----5-5-|-5-5-9~------------|---------------------|-
B|-0-0-3------|-5-5-5-5---------7-7-|-7-7---------------|--------5b7~-5-3---3-|-
G|-4-4--------|-4-4-4-4--7~-----0-0-|-0-0-9~------------|-----------------4---|-
D|-4-4-5------|----------5~---------|-----7~------------|---------------------|-
A|------------|-7-7-7-7-------------|-----0~------------|---------------------|-
E|-----3------|-0-0-0-0-------------|-------------------|---------------------|-





E|----------------|----------------|----------------------|----------------|---
B|-5~-5b7--r3-2---|-3~-3-----------|----------------------|---5b7--5-3---3-|---
G|--------------2-|------2b4--r----|----------------------|------------4---|---
D|----------------|------------5-4-|-5~---------4-2h4p2---|----------------|---
A|----------------|----------------|--------------------5-|-2--------------|---
E|----------------|----------------|----------------------|----------------|---





E|---------------------|----------------|----||---------------------|------------
B|-----5~-5b7--r-3-2---|-3~-3-----------|----||-10b12~-----10-8---8-|-10~--10b12-
G|-------------------2-|------2b4--r----|----||-----------------9---|------------
D|---------------------|------------5-4-|-5~-||---------------------|------------
A|---------------------|----------------|----||---------------------|------------
E|---------------------|----------------|----||---------------------|------------





E|----------|------------------------|--------------------|--------------------
B|--r-8-7---|-------8~--8------------|--------------------|---10b12--r-b2-10-8-
G|--------7-|-------------7b9--r-----|--------------------|--------------------
D|----------|-------------------10-9-|-10~-----9-7h9p7----|--------------------
A|----------|------------------------|-----------------10-|-7------------------
E|----------|------------------------|--------------------|--------------------





E|---------|-7---------------|-----------------------------|----------------||-
B|---10b12-|---10~--10-8-7---|-----------8~---8------------|----------------||-
G|-9-------|---------------7-|------------------7b9--r-----|----------------||-
D|---------|-----------------|------------------------10-9-|-10~------------||-
A|---------|-----------------|-----------------------------|----------------||-
E|---------|-----------------|-----------------------------|----------------||-     
Добавлено: 07.08.2013
Другие материалы по этой песне:

Страница создана 13.03.2012
http://primanota.ru/steve-morse/arena-rock-chords.htm
Привет, Гость.
Предлагаем пройти революционный курс по гитаре.
Подарок от PrimaNota.Ru, забирай!