PrimaNota.ru - самый крупный в мире бесплатный архив песенных текстов, аккордов, табулатур и нот


Steve Morse Band - Brave New World - таба, видео

Регистрация Запомнить меня
Войти через:  Facebook Google Twitter Vk Yandex Mail.ru

Steve Morse Band - Brave New World - таба, видео

Печатать
Просмотров: 83
Guitar Tabulature of Steve Morse - Brave New World

Transcribed by Wim den Herder (c)
http://www.wimdenherder.cjb.net/


                                                                         


                                                                            3x
E||-------------------0-----------------|--0-----0-----0--------------------||
B||---12-----10-----------9-----7-------|----5-----5-----5---4-------0-4----||
G||*-----9------9---9---9---9-----9-8-6-|------2-----2-----2---4---4-----4-*||
D||*-------7------7-----------7---------|------------------------4---------*||
A||-------------------------------------|-----------------------------------||
E||-------------------------------------|-----------------------------------||


                                                           
------------------0-----------------|---------------------|
--12-----10-----------9-----7-------|---------------------|
-----9------9---9---9---9-----9-8-6-|--6------------------|
-------7------7-----------7---------|--6---7---2----------|
------------------------------------|--4---7---2----------|
------------------------------------|------5---0----------|


                                                                          
-------------------------|---------------------|-------------------------|
-------------------------|---------------------|-------------------------|
-------------------------|---------------------|-------------------------|
-------------------------|-------2----4--------|-------------------------|
-----------0----2--0--2--|--4------------------|-----------0----2--0--2--|
--2--0--2----------------|---------------------|--2--0--2----------------|


                                                                     
--------------------|-------------------------|---------------------|
--------------------|-------------------------|---------------------|
--------------------|-------------------------|---------------------|
--------------------|-------------------------|-------2----4--------|
--5-----------------|-----------0----2--0--2--|--4------------------|
-----------4--------|--2--0--2----------------|---------------------|


                                               
-------------------------|--------------------|
-------------------------|--------------------|
-------------------------|--------------------|
-------------------------|--------------------|
-----------0----2--0--2--|--5-----------------|
--2--0--2----------------|-----------4--------|


                                                                       
---------------------------------|--------------|---------------------|
-----12/-14--14~-12--------------|--------------|---------------------|
--9------------------13--13b-13r-|--11----11~---|--9~-----------------|
---------------------------------|--------------|-----------6r---4----|
---------------------------------|--------------|---------------------|
---------------------------------|--------------|---------------------|


                                                             
-----------------------------|------------------------------|
-----12/-14--16b-12----12----|------------------------------|
--9--------------------------|--13/-11--9--11b-12b-11b-9----|
-----------------------------|------------------------------|
-----------------------------|------------------------------|
-----------------------------|------------------------------|


                                                                      
---------------------|-------------------------|---------------------|
---------------------|-------------------------|---------------------|
--6------------------|-------------------------|---------------------|
--6---7---2----------|-------------------------|-------2----4--------|
--4---7---2----------|-----------0----2--0--2--|--4------------------|
------5---0----------|--2--0--2----------------|---------------------|


                                                                         
-------------------------|--------------------|-------------------------|
-------------------------|--------------------|-------------------------|
-------------------------|--------------------|-------------------------|
-------------------------|--------------------|-------------------------|
-----------0----2--0--2--|--5-----------------|-----------0----2--0--2--|
--2--0--2----------------|-----------4--------|--2--0--2----------------|


                                                                          
--------------------------|-------------------------|--------------------|
--------------------------|-------------------------|--------------------|
--------------------------|-------------------------|--------------------|
-------2----4----7--------|-------------------------|--------------------|
--4-----------------------|-----------0----2--0--2--|--5-----------------|
--------------------------|--2--0--2----------------|-----------4--------|


                                                                                
----------------------|-------------------------------|------------------------|
----------------------|-------------------------------|------------------------|
------2--0--2--4------|--11--9--11--14----2b0---------|------------------------|
------2--0--2--4------|--11--9--11--14--------4-2-4---|--------2---------------|
----------------------|-----------------------------5-|--2--5---------------2--|
----------------------|-------------------------------|-----------3------5-----|


                                                      
----------------------------|------------------------|
----------------------------|------------------------|
----------------------------|------------------------|
----------------5--2--4-----|--------2---------------|
--5----------2-----------5--|--2--5---------------2--|
-----3----3-----------------|-----------3------5-----|


                                                                                
----------------------------|-----------------5--------|-----------------------|
----------------------------|-----------7--8-----5-----|--7--------------------|
----------------------------|--4--6--7-----------------|-----7--4-----4--6b-6--|
----------------5--2--4-----|-----------------------7--|-----------5-----------|
--5----------2-----------5--|--------------------------|-----------------------|
-----3----3-----------------|--------------------------|-----------------------|


                                                                                
-----------------5--------|-----------------------|----------------------------|
-----------7--8-----5-----|--7--------------------|--5--7--10--10b-----14------|
--4--6--7-----------------|-----7--4-----4--6b-6--|------------------------11--|
-----------------------7--|-----------5-----------|----------------------------|
--------------------------|-----------------------|----------------------------|
--------------------------|-----------------------|----------------------------|


                                                              
--------------------------|----------------------------------|
--14b-----12------14b-12--|------12--10------12~---14----14b-|
--------------11----------|--11----------11-----------11-----|
--------------------------|----------------------------------|
--------------------------|----------------------------------|
--------------------------|----------------------------------|


                                                                           
----------10--12--14--14~-----|---------------------|---------------------|
--12--------------------------|---------------------|---------------------|
------11----------------------|---------------------|---------------------|
------------------------------|----4----2----4------|----4--2--4----------|
------------------------------|----4----2----4------|----4--2--4----------|
------------------------------|----2----0----2------|----2--0--2----------|


                                                                      
---------------------|-------------------------|---------------------|
---------------------|-------------------------|---------------------|
---------------------|-------------------------|---------------------|
----4----2----4------|-------------------------|----4----2----4------|
----4----2----4------|-------------------2-----|----4----2----4------|
----2----0----2------|----2--0--2--4--5-----0--|----2----0----2------|


                                                                    
---------------------|---------------------|-----------------------|
---------------------|---------------------|-----------------------|
---------------------|---------------------|-----------------------|
----4--2--4----------|----4----2----4------|-----------------------|
----4--2--4----------|----4----2----4------|--4/-2--0--2--0--------|
----2--0--2----------|----2----0----2------|-----------------2--0--|


                                                                 
-----------------|------10b-10r-10b-------|---------------------|
-----------------|------------------9r-7--|--5--3--2h-3h2-------|
--4b-2~----------|------------------------|---------------4--2--|
--------2--4~-4b-|------------------------|---------------------|
-----------------|------------------------|---------------------|
-----------------|------------------------|---------------------|


                                               
----------------------------------------------|
--17--15--14--15------------------------------|
------------------14--16--13----------14~-----|
------------------------------16--14----------|
----------------------------------------------|
----------------------------------------------|


                                                       
--14r-12----------------------------------------------|
----------15--14--12--------------15r-13--12h13h12----|
----------------------14--13--14-------------------14-|
------------------------------------------------------|
------------------------------------------------------|
------------------------------------------------------|


                                                                          3x
|-------------------0-----------------|--0-----0-----0--------------------||
|---12-----10-----------9-----7-------|----5-----5-----5---4-------0-4----||
|*-----9------9---9---9---9-----9-8-6-|------2-----2-----2---4---4-----4-*||
|*-------7------7-----------7---------|------------------------4---------*||
|-------------------------------------|-----------------------------------||
|-------------------------------------|-----------------------------------||


                                                           
------------------0-----------------|---------------------|
--12-----10-----------9-----7-------|---------------------|
-----9------9---9---9---9-----9-8-6-|--6------------------|
-------7------7-----------7---------|--6---7---2----------|
------------------------------------|--4---7---2----------|
------------------------------------|------5---0----------|


                                                                                
-------------2---------------|-----------------------|--4b-2-----2--5--2--2----|
---------------5-4-2---------|-----------------------|--------5b---------------|
--4b-2--4b-----------5-4-3-2-|--2b-2-----------------|-------------------------|
-----------------------------|--------4--2h-4h-2h-4--|-------------------------|
-----------------------------|-----------------------|-------------------------|
-----------------------------|-----------------------|-------------------------|


                                                                         
--4b-4--2------------9--|--14h9-12-11-10-9----------------------9-------|
-----------------12b----|------------------13-12-11-10-11-12-13---13-12-|
------------------------|-----------------------------------------------|
------------------------|-----------------------------------------------|
------------------------|-----------------------------------------------|
------------------------|-----------------------------------------------|


                                                                    
--------------------------------------------|----------------------|
--11-10-9-12-10-9---------------------------|----------------------|
------------------11-10-9-------------------|--9b------------------|
--------------------------11-10-9-7-9-10-11-|-------9r-7-----7b-7r-|
--------------------------------------------|-------------9--------|
--------------------------------------------|----------------------|


                                                                 
------14-------------------------|------------------------------|
--15b----------------------------|------------------------------|
----------13b-13--11------11/-9--|------13b-11~-----------------|
----------------------14---------|--11------------9-7----7b-9-7-|
---------------------------------|--------------------9---------|
---------------------------------|------------------------------|


                                                                
-------------------------------|-------------------------------|
-------------------------------|-------------------------------|
------4--2--4------------------|--4--2--4----------------------|
------4--2--4------------------|--4--2--4----------------------|
--x-x-2--0--2--x-x-x-x-x-x-x-x-|--2--0--2--x-x-x-x-x-x-x-x-x-x-|
-------------------------------|-------------------------------|


                                                        
-------------------------------|-----------------------|
-------------------------------|-----------------------|
------4--2--4------------------|-----------------------|
------4--2--4------------------|-----------------2-----|
--x-x-2--0--2--x-x-x-x-x-x-x-x-|--2--0--2--4--5-----0--|
-------------------------------|-----------------------|


                                                                
-------------------------------|-------------------------------|
-------------------------------|-------------------------------|
------4--2--4------------------|--4--2--4----------------------|
------4--2--4------------------|--4--2--4----------------------|
--x-x-2--0--2--x-x-x-x-x-x-x-x-|--2--0--2--x-x-x-x-x-x-x-x-x-x-|
-------------------------------|-------------------------------|


                                                       
-------------------------------|----------------------|
-------------------------------|----------------------|
------4--2--4------------------|-----------------2----|
------4--2--4------------------|-------5---------2----|
--x-x-2--0--2--x-x-x-x-x-x-x-x-|-------5---------0----|
-------------------------------|--x----3----x---------|


                                                                
-------------------------------|-------------------------------|
-------------------------------|-------------------------------|
------4--2--4------------------|--4--2--4----------------------|
------4--2--4------------------|--4--2--4----------------------|
--x-x-2--0--2--x-x-x-x-x-x-x-x-|--2--0--2--x-x-x-x-x-x-x-x-x-x-|
-------------------------------|-------------------------------|


                                                        
-------------------------------|-----------------------|
-------------------------------|-----------------------|
------4--2--4------------------|-----------------------|
------4--2--4------------------|-----------------2-----|
--x-x-2--0--2--x-x-x-x-x-x-x-x-|--2--0--2--4--5-----0--|
-------------------------------|-----------------------|


                                                                
-------------------------------|-------------------------------|
-------------------------------|-------------------------------|
------4--2--4------------------|--4--2--4----------------------|
------4--2--4------------------|--4--2--4----------------------|
--x-x-2--0--2--x-x-x-x-x-x-x-x-|--2--0--2--x-x-x-x-x-x-x-x-x-x-|
-------------------------------|-------------------------------|


                                                       
-------------------------------|----------------------|
-------------------------------|----------------------|
------4--2--4------------------|-----------------2----|
------4--2--4------------------|-------5---------2----|
--x-x-2--0--2--x-x-x-x-x-x-x-x-|-------5---------0----|
-------------------------------|--x----3----x---------|


                                                    
---------------------------|-----------------------|
-------------------9b-9b---|-----------------------|
--13b---11--9--11----------|-----------------------|
---------------------------|--9b-9--9~-7--7--------|
---------------------------|-----------------9--9--|
---------------------------|-----------------------|


                                       
--------------------------------------|
--------------------------------------|
--------------------------11-12-13-14-|
--------------11-12-13-14-------------|
--------------------------------------|
--7h-5h-7h-5--------------------------|


                                                                               
----------------------12-11-10-9---------|------------------------------------|
--12b-----------10---------------12-10-7-|--10b-10--7--7~---------------------|
--------9-10-11----11--------------------|---------------------------11-------|
-----------------------------------------|------------------11-13-14----14-13-|
-----------------------------------------|------------------------------------|
-----------------------------------------|------------------------------------|


                                                                              
--------------------------------------------------|--------------------------|
--14-14-------13-13-------12-12-------------------|--------------------------|
--------------------------------------14-14-------|--11-11-------11----11-13b|
--------11-11-------11-11-------11-11-------11-11-|--------11-11----11-------|
--------------------------------------------------|--------------------------|
--------------------------------------------------|--------------------------|


                                                                  
--------------------------------------------12-14-|--15-16-17b---|
--------------------------------12-14-15-16-------|--------------|
--------------------11-13-14-15-------------------|--------------|
--------11-13-14-15-------------------------------|--------------|
--12-14-------------------------------------------|--------------|
--------------------------------------------------|--------------|


                                                                 
---------------------------------|------------------------------|
--12----10--9h-10h9--------------|------9--10--12b---12--10--9--|
--------------------12-9------9--|--11--------------------------|
-------------------------11-9----|------------------------------|
---------------------------------|------------------------------|
---------------------------------|------------------------------|


                                                              
----------------------------|--17b---17r-14b-14--12----------|
----------------------------|------------------------14--12--|
--11--9--11b-9--11------16--|--------------------------------|
----------------------------|--------------------------------|
----------------------------|--------------------------------|
----------------------------|--------------------------------|


                                                                       
--12----------------|--19b---19r---22b-22b-22b-|---------------------||
------15b-----------|--------------------------|---------------------||
----------------18--|--------------------------|--6------------------||
--------------------|--------------------------|--6------7------2----||
--------------------|--------------------------|--4------7------2----||
--------------------|--------------------------|---------5------0----||



TABLATURE EXPLANATION

                     
----------                            
----5b---- Bend 

----------                            
----5r---- Bend Release

---------- 
----5h8--- Hammeron / Pull off                
                                         

----------                          
----5/8--- Slide Up   
               
----------                           
----5\8--- Slide Down                 

----------                            
----5~---- Vibrato
Добавлено: 10.11.2013
Другие материалы по этой песне:
  • Аккорды и текст

Страница создана 27.07.2013
http://primanota.ru/steve-morse-band/brave-new-world-chords.htm
Привет, Гость.
Предлагаем пройти революционный курс по гитаре.
Подарок от PrimaNota.Ru, забирай!