PrimaNota.ru - самый крупный в мире бесплатный архив песенных текстов, аккордов, табулатур и нот


Steve Miller - Love's Riddle - текст песни, таба, видео

Регистрация Запомнить меня
Войти через:  Facebook Google Twitter Vk Yandex Mail.ru

Steve Miller - Love's Riddle - текст песни, таба, видео

Печатать
Просмотров: 123
Artist: Steve Miller
Song : Love's Riddle (Recall The Beginning 1972)
Tuning: Standard
Transcriber: Phil Champ (phil.champ@ntlworld.com)

                                                      
E||--------------------------|--------------------------|
B||--------4--3--4-----------|--4--3--4-----------4--3--|
G||-----3-----------3-----3--|-----------3-----3--------|
D||--------------------------|--------------------------|
A||--3-----------------3-----|--------------3-----------|
E||--------------------------|--------------------------|


                                                     
|--------------------------||--------------------------|
|--4-----------4--3--4-----||--------------------------|
|-----3-----3-----------3--||-----------3--------------|
|--------------------------||--------3-----3-----------|
|--------3-----------------||-----3-----------3-----3--|
|--------------------------||--1-----------------1-----|


                                                     
|--------------------------|--------------------------||
|--------------------------|--------------------------||
|-----3-----------------3--|-----------------3--------||
|--3-----3-----------3-----|--3-----------3-----3-----||
|-----------3-----3--------|-----3-----3-----------3--||
|--------------1-----------|--------1-----------------||


                                               
|--1--------3--------||--------------------------|
|--3--------5--------||-----------1--------------|
|--3--------5--------||--------------------------|
|--3--------5--------||-----2--3-----3--2-----2--|
|--1--------3--------||--3-----------------3-----|
|--------------------||--------------------------|


                                                     
|--------------------------|--------------------------||
|-----1-----------------1--|-----------------1--------||
|--------------------------|--------------------------||
|--3-----3--2-----2--3-----|--3--2-----2--3-----3--2--||
|--------------3-----------|--------3-----------------||
|--------------------------|--------------------------||


                                                     
|--------------------------|--------------------------|
|--------------------------|--------------------------|
|-----------3--------------|-----3-----------------3--|
|-----0--3-----3--0-----0--|--3-----3--0-----0--3-----|
|--1-----------------1-----|--------------1-----------|
|--------------------------|--------------------------|


                           
|--------------------------||
|--------------------------||
|-----------------3--------||
|--3--0-----0--3-----3--0--||
|--------1-----------------||
|--------------------------||


     
Добавлено: 16.07.2013
Другие материалы по этой песне:
  • Аккорды и текст

Страница создана 06.06.2012
http://primanota.ru/steve-miller/loves-riddle-chords.htm
Привет, Гость.
Предлагаем пройти революционный курс по гитаре.
Подарок от PrimaNota.Ru, забирай!