PrimaNota.ru - самый крупный в мире бесплатный архив песенных текстов, аккордов, табулатур и нот


steve king - Satan Is Her Name - аккорды и текст, видео

Регистрация Запомнить меня
Войти через:  Facebook Google Twitter Vk Yandex Mail.ru

steve king - Satan Is Her Name - аккорды и текст, видео

Печатать
Просмотров: 18
Satan Is Her Name
steve king
Steve King
Satan Is Her Name

Chords in brackets are optional


A#m 


A#m          
Satan is a name she goes by

there's a lot of devil in her eye

                   G#            (G#, A)
kiss the fire that burns you well
A#m                          G#
she breaks your heart and it hurts like
          A#m 
words can tell

A#m 
(oh Lover)

A#m
Lady in black they call her

your eyes can't believe that's all her

                  G#             (G#, A)
got to follow you know your fate
A#m                        G#
the eyes of love soon change to 
            A#m
the eyes of hate

A#m 
(oh Lover)

Solo (Same chords as verses)
  A#m
e|--6---6---6--------|---------------------------||
B|--------9---6--8b--|---------------------------||
G|-------------------|--8h9p8/6-------8h9p8/6----||
D|-------------------|---------8\------------8\--||(x2)
  A#m              G#        A#m             G#
D|--8-8-8--8-8--6---------|--8-8-8---8-8--6------------------|
A|-----------------8-8\---|------------------8-8-8--8-8-8-8--|
E|------------------------|----------------------------------|
  N.C.
D|------6--8b--|
A|----8--------|
E|--6----------|

                (G#, A)
A#m 
(oh Lover)

A#m
All hands are beginners 

with her there are no winners
                             G#             (G#, A)
She pulls your heart strings until they snap
A#m                        G#
Breaks your heart but you know you'll
            A#m
Crawl right back

A#m 
(oh Lover)


The Riffs

Riff 1 (gets played over A#m - Maybe palm muted)

D|---------6---|
A|------8----8-|
E|--6----------|

Riff 2 (Get's played over G# - Basically Just the root of the chords)

E|--4-4-4-4-4-4-5-6-6-6-6-6-6-4-4-4-4-4--|







Добавлено: 21.03.2016
Другие материалы по этой песне:
  • Аккорды и текст

Страница создана 21.03.2016
http://primanota.ru/steve-king/satan-is-her-name-chords.htm
Привет, Гость.
Предлагаем пройти революционный курс по гитаре.
Подарок от PrimaNota.Ru, забирай!