PrimaNota.ru - самый крупный в мире бесплатный архив песенных текстов, аккордов, табулатур и нот


Steve Kimock - Storm Crow - таба, видео

Регистрация Запомнить меня
Войти через:  Facebook Google Twitter Vk Yandex Mail.ru

Steve Kimock - Storm Crow - таба, видео

Печатать
Просмотров: 76
------------------------------------------------------------------------------- 
              Storm Crow - Steve Kimock 
------------------------------------------------------------------------------- 
Tabbed by: Esteban Colon, modifications by ADC/DT    
Email: Estebancolon@hotmail.com / Dyra.thorvaldsson@gmail.com 

Tuning: Standard 


INTRO 
       Am      G       Em       D           Csus2    G     Em          Bm 
    
e|-------8------7-------3-------2------------3-------3------3-----------2----| 
B|-----10------8-------5-------3------------3-------3------5-----------3-----| 
G|----9-------7-------4-------2------------5-------4------4-----------4------| 
D|---------------------------------------------------------------------------| 
A|---------------------------------------------------------------------------| 
E|---------------------------------------------------------------------------| 


e|-------8------7-------3-----5p3p2------------3-----3------3-----5p3p2------| 
B|-----10------8-------5-----------3----------3-----3------5-----------3-----| 
G|----9-------7-------4-------------2p0------5-----4------4-------------2p0--| 
D|-------------------------------------4-----------------------------------4-| 
A|---------------------------------------------------------------------------| 
E|---------------------------------------------------------------------------| 

     *Asus2* 
e|---------0-----|
B|-------------0-|
G|------2-----2--| Repeat this  Asus2 riff 4x
D|----2----------| 
A|--0------------|
E|---------------|


Theme 1B Steve 
      
e|---------------------------------------------------------------10----------| 
B|---12-----10----12--------10----12-------10----12-10----10--12-----12------| 
G|-------------12--------------12-------------12------12---------------------| 
D|---------------------------------------------------------------------------| 
A|---------------------------------------------------------------------------| 
E|---------------------------------------------------------------------------| 

e|------------------------14-12-------------------------------10-------------| 
B|-(12)-----10----12------------12-----10-----12-10-----10-12----12----------| 
G|-------------12--------------------------12-------12-----------------------| 
D|---------------------------------------------------------------------------| 
A|---------------------------------------------------------------------------| 
E|---------------------------------------------------------------------------|Repeat 2x's 

Bridge 1 to Theme 1 

Guitar clean w/Chorus Effect 

e|--------------------------------------------------10-----10-----10-----10--| 
B|-------3---------3---------3---------3----------10-----10-----10-----10----| 
G|-----2---------2---------2---------2---*OR*---12-----10-----11-----10------| 
D|---5---------3---------4---------3-----------------------------------------| 
A|---------------------------------------------------------------------------| 
E|---------------------------------------------------------------------------|Repeat 4x's 

Then Repeat above Figures followed by: 


Bridge 2 

Guitar clean w/Chorus Effect 

e|------------------------------------| 
B|------------------------------------| 
G|--------7------------7----------7---| 
D|----6-7----7--5----7----------7-----| 
A|--------------------------7/8-------| Repeat 4x's 
E|------------------------------------|  

     Asus2 
e|---------0-----| 
B|-------------0-| 
G|------2-----2--| Repeat this  Asus2 riff 4x 
D|----2----------|
A|--0------------| 
E|---------------|

Добавлено: 20.05.2015
Вам также может быть интересно:
Другие материалы по этой песне:
  • Аккорды и текст

Страница создана 20.05.2015
http://primanota.ru/steve-kimock/storm-crow-chords.htm
Привет, Гость.
Предлагаем пройти революционный курс по гитаре.
Подарок от PrimaNota.Ru, забирай!