PrimaNota.ru - самый крупный в мире бесплатный архив песенных текстов, аккордов, табулатур и нот


Steve Kazee And Cristin Milioti - Falling Slowly - аккорды и текст, видео

Регистрация Запомнить меня
Войти через:  Facebook Google Twitter Vk Yandex Mail.ru

Steve Kazee And Cristin Milioti - Falling Slowly - аккорды и текст, видео

Печатать
Просмотров: 79
Уроки эстрадного вокала в Санкт-Петербурге
Falling Slowly
Steve Kazee And Cristin Milioti
-------------------------------------------------------------------------------
               Falling Slowly - Steve Kazee and Cristin Milioti
-------------------------------------------------------------------------------


There are lots of ways to play this song and Glen Hansard and Arthur Darvill play it differently,
but this is how Steve Kazee plays it from the musical on Broadway

For the version played in the movie copy and paste:
http://tabs.ultimate-guitar.com/g/glen_hansard_and_marketa_irglova/falling_slowly_ver8_tab.htm


For the last part just freestyle with removing and placing your middle finger while keeping 
the F7M   chord


Tuning: Standard


C:     332010

F7M  : 133210




C
I don't know you

F7M  
But I want you

C                    F7M  
All the more for that

C
Words fall through me

    F7M  
And always fool me

C                F7M  
And I can't react


    Am         G        F7M  
And games that never amount

   G                 Am
To more than they're meant

     G               F7M  
Will play themselves out


C                 F7M               Am
Take this sinking boat and point it home

                F7M  
We've still got time

C                  F7M              Am
Raise your hopeful voice you have a choice

               F7M   
You've made it now


C
Falling slowly

F7M  
Eyes that know me

C                  F7M  
And I can't go back

C
Moods that take me

F7M  
And erase me

C                    F7M  
And I'm painted black


Am       G            F7M  
You have suffered enough

    G                Am
And warred with yourself

     G              F7M  
It's time that you won


C                 F7M               Am
Take this sinking boat and point it home

                F7M  
We've still got time

C                  F7M              Am
Raise your hopeful voice you have a choice

               F7M  
You'll make it now

C              F7M            Am
Falling slowly sing your melody

             F7M  
I'll sing it loud

C   F7M     Am   F7M  

         
(Take it all)

              
(I played the cards too late)

         
(Now its gone)

   C                         F                         C                          F
e|--------------0-------------------------1-----0--------------------0--------------------------------------0--|
B|--1-----3-----------3-------1-----3-------------------1------3-----------3-------1-----1-----1-----1------1--|
G|-----0-----0-----0-----0-------0-----0-----0-----0--------0-----0-----0-----0-------0-----0-----0-----0---0--|
D|----------------------------------------------------------------------------------------------------------2--|
A|--3---------------------------------------------------3---------------------------------------------------3--|
E|----------------------------1----------------------------------------------------1---------------------------|
Добавлено: 25.06.2016
Другие материалы по этой песне:
  • Аккорды и текст

Страница создана 25.06.2016
http://primanota.ru/steve-kazee-and-cristin-milioti/falling-slowly-chords.htm
Привет, Гость.
Предлагаем пройти революционный курс по гитаре.
Подарок от PrimaNota.Ru, забирай!