PrimaNota.ru - самый крупный в мире бесплатный архив песенных текстов, аккордов, табулатур и нот


Steve Howe - Turn Of The Century - таба, видео

Регистрация Запомнить меня
Войти через:  Facebook Google Twitter Vk Yandex Mail.ru

Steve Howe - Turn Of The Century - таба, видео

Печатать
Просмотров: 151
Авторы: Jon Anderson, Steve Howe, Alan White

-------------------------------------------------------------------------------
Turn of the century: Steve Howe of YES
-------------------------------------------------------------------------------
Tabbed by: ed28112 I learned to play this song watching Steve play it on his video
Email: jstanley11@carolina.rr.com               

Tuning: Standard 

e|-0----------------10--8--7----------------------7--13--12-10-7-7-/-8---5-|
B|--0-------------------------8--/-10-/-5--9-9-----------------------------|
G|---9---------------------------------------------------------------------|
D|----10------10----12--10-9----------------------9--10--9--7--9-9-/-10--7-|
A|------0---7----7------------10-/-12-/-7-11-11----------------------------|
E|-------0-----------------------------------------------------------------|

e|------5~~---------------------------------------7-h8-7-h8p7p5--------------|
B|--6-8----8-6-5~~---------------------------6-5-------------------6-5-------|
G|----------------5-7-7h9-7-5h7p5-/4--------7---------------------7----7-5---|
D|-----------------------------------5-7---7---------------------7---------7-|
A|---------------------------------------8----------------------8------------|
E|---------------------------------------------------------------------------|

e|------------------------13h15p1312h13p1210h12p108h10p810h12p1012h15p12--|
B|-----------6--8-/-10--8-------------------------------------------------|
G|---------7--------------------------------------------------------------|
D|-------7----------------------------------------------------------------|
A|-7-7-8--------10/-12--10-----------------------------------0------------|
E|------------------------------------------------------------------------|

e|--10--8---7-----------------------------------------------------0---------|
B|-------------8-/-10--5--8-/-10--8------5-----8---6---3---6--5----0--------|
G|------------------------------------------------------------------9-------|
D|--12--10--9--------------------------------------------------------10-----|
A|-------------10/-12--7—-10/-12--10---7----10---8---5---8----7--------0----|
E|----------------------------------------------------------------------0---|

e|-16-14-12-11-12-9-12-9-12-11-7--11-7--9--4------------4--4-----7-7-12-11-9-9|
B|--------------------------0-----0---------4-----7-5-4-5--5-----4-4----0-----|
G|-------------------------------------------5----------6--6-----4-4----------|
D|--------------------------------------------4-------------------------------|
A|--------------------------------------0------6---------4---4-------0-----0-0|
E|----------------------------------------------4--------------9--------------|

e|-9-11-12-14-12-11-12-14-16-14-12-11~~-12--9—-12--9----11--11--11--11------|
B|--------------------------------------9---9--9---9----0---0---0---0--------|
G|--------------------------------------9---9--9---9----8---8---8---8--------|
D|--------------------------------------x---x--x---x----x---x---x---x--------|
A|--------------------------------------11--11-11--11---9---9---9---9--------|
E|---------------------------------------------------------------------------|

e|------------------------4-5-7-5-4-h5p4-------4--4----7-7--|
B|-----------------------4---------------7-5-4-5--5----4-4--|
G|-2-2-2----------------5----------------------6--6----4-4--|
D|-6-4-2--2--2--2------6------------------------------------|
A|--------6--4--2-----6-------------------------4--4--------|
E|----------------5--4-------------------------------7------|






e|--9-11-12-11-9-----------------------9-11-12--10-8-------8-------8-------8-|
B|--------------12-10-9--------9-10-12---------------12-10---12-10---12-10---|
G|---------------------11-9-11-----------------------------------------------|
D|------------------------------------------10-------------------------------|
A|---------------------------------------------------------------------------|
E|---------------------------------------------------------------------------|



e|-------8---------------0---------------------------------------------------|
B|-12-10----+12--------(+12)-------------------------------------------------|
G|-------------------11------------------------------------------------------|
D|------------------9--------------------------------------------------------|
A|----------------11---------------------------------------------------------|
E|---------------0-----------------------------------------------------------|




************************************

| /   slide up
| \   slide down
| h   hammer-on
| p   pull-off
| ~   vibrato
| +   harmonic
| x   Mute note
| b   Bend
| pb  Pre-bend
| br  Bend release
| pbr Pre-bend release
| brb Bend release bend

************************************


Добавлено: 30.07.2012
Вам также может быть интересно:
Другие материалы по этой песне:
  • Аккорды и текст

Страница создана 30.07.2012
http://primanota.ru/steve-howe/turn-of-the-century-chords.htm
Привет, Гость.
Предлагаем пройти революционный курс по гитаре.
Подарок от PrimaNota.Ru, забирай!