PrimaNota.ru - самый крупный в мире бесплатный архив песенных текстов, аккордов, табулатур и нот


Steve Howe - Masquerade - таба, видео

Регистрация Запомнить меня
Войти через:  Facebook Google Twitter Vk Yandex Mail.ru

Steve Howe - Masquerade - таба, видео

Печатать
Просмотров: 91
Авторы музыки: Steve Howe

-------------------------------------------------------------------------------
                             Masquerade – Steve Howe of YES
-------------------------------------------------------------------------------
Tabbed by: ed28112 I learned the song watching Steve play it at http://
www.bing.com/videos/watch/video/steve-howe-
masquerade/0fb01580e27559fc9dfa0fb01580e27559fc9dfa-166936772616?q=steve%20howe
%20yes&FROM=LKVR5>1=LKVR5&FORM=LKVR 
Email: jstanley11@carolina.rr.com

Tuning: standard

   Play first bar twice
e|-------0----------0-------------0-------------------------|
B|---------3------3---3---------3---3-----------------------|
G|-----2-----2-H4-------------0-----------------------------|
D|--0-------------------0H2H4---------4-/5-4P2-P0-----------|
A|------------------------------------------------4-P2-P0---|
E|----------------------------------------------------------|

e|---5--3--2-------0----------0-----|
B|---------------3------3--3----3---|
G|----------------------------------|
D|---0--0--0------------------------|
A|------------2---------1--0--------|
E|----------------------------------|

e|-------0---------0-------------0--------------------------|
B|---------3-----3---3---------3---3------------------------|
G|-----2-----2H4-------------0------------------------------|
D|--0------------------0H2H4----------4-/5-4-P2-P0----------|
A|------------------------------------------------4-P2-P0---|
E|----------------------------------------------------------|

e|---5--3--2------0-2-/7--6--5--5--4--3------0-2--------0----|
B|--------------3--------------------------3------3-—3-----3-|
G|------------------------------—----------------------------|
D|---0--0--0--------------------0--0--0----------------------|
A|------------2-----------5--4-----------2--------1--0-------|
E|------------------------—---------—------------------------|

e|-------0---------0-------------0--------------------------|
B|---------3-----3---3---------3---3------------------------|
G|-----2-----2H4-------------0------------------------------|
D|--0------------------0H2H4----------4-/5-4-P2-P0----------|
A|------------------------------------------------4-P2-P0---|
E|----------------------------------------------------------|

e|-------0--------------------0-----7-7--5--2--|
B|---------3----------------3---3--------------|
G|-----2-----2-H4---------0---------7-7--6--2--|
D|--0--------—----0-H2-H4----------------------|
A|---------------------------------------------|
E|---------------------------------------------|

e|-------0----------0---------------0------2-0H2P0---0-2--2---2-2---2--7-7-5-2|
B|---------3------3---3-----------3---3-------------------3---3-3---3---------|
G|-----2-----2-H4---------------0-------0--2-0H2P0---0-2--4---4-4---4--7-7-6-2|
D|--0--------—----------0-H2-H4--------------------4------4---4-4---4---------|
A|--------------------------------------------------------2---2-2---2---------|
E|--------------------------------------------------------2---2-2---2---------|



e|-------0----------0---------------0------2-0H2P0---2-0H2P0---0-2-|
B|---------3------3---3-----------3---3----------------------------|
G|-----2-----2-H4---------------0-------0--2-0H2P0---2-0H2P0---0-2-|
D|--0--------—----------0-H2-H4--------------------4---------4-----|
A|-----------------------------------------------------------------|
E|-----------------------------------------------------------------|


e|-----3--2-0-------3—-2-0----5-----5------5-----5------5------7-7--5--2-----|
B|-----5------3-----5------3----2-----2-H3---3-----3-P2---2------------------|
G|-----4------------4-------------2------------2------------2--7-7--6--2-----|
D|-----5------------5----------------------2---------------------------------|
A|----------------------------0-------------------------0--------------------|
E|--0-----------0-0----------------------------------------------------------|

e|-------0----------0---------------0------2-0H2P0---0-2---+7----2--7-7-6-2---|
B|---------3------3---3-----------3---3--------------------+7----3------------|
G|-----2-----2-H4---------------0-------0--2-0H2P0---0-2---+7----4--7-7-5-2---|
D|--0--------—----------0-H2-H4--------------------4-------+7----4------------|
A|---------------------------------------------------------------2------------|
E|------------------------------------------------------------+7-2------------|

e|-------0----------0---------------0------2-0H2P0---2-0H2P0---0-2-|
B|---------3------3---3-----------3---3----------------------------|
G|-----2-----2-H4---------------0-------0--2-0H2P0---2-0H2P0---0-2-|
D|--0--------—----------0-H2-H4--------------------4---------4-----|
A|-----------------------------------------------------------------|
E|-----------------------------------------------------------------|

e|---3-0-2-0H2P0--0----3-0-2-0H2P0--0-5-----5-----5-----5-------5----5--------|
B|---5-----------3-----5-----------3----2-----2H3---3-----3-P2----2----2-H3---|
G|---4-----------------4------------------2-----2-----2------------2----------|
D|---5-----------------5--------------------------2---------------------------|
A|------------------------------------0-------------------------0-------------|
E|-0---------------0-0--------------------------------------------------------|

e|-----------------5-3-2-H3P2P0--------5-3-2-H3P2P0---------5-3-2-H3P2P0-----|
B|--3-3-3----------0-0-0---------------0-0-0----------------0-0-0------------|
G|--2-2-2-0-0-0-0--------------0-0-0-0--------------0-0-0-0------------------|
D|--------7-5-4-0--------------7-5-4-0--------------7-5-4-0------------------|
A|---------------------------------------------------------------------------|
E|---------------------------------------------------------------------------|

e|--------------------------0-------0-------------0--------------------------|
B|----------------------------3-------3-------------3------------------------|
G|--0-0-0-----------------2-----2H3-------------0----------------------------|
D|--7-5-4-5-/9-7-5-BR4--0---------------0-H2-H4-------4-/9-7-5-4-H5P4-/2-0-2-|
A|---------------------------------------------------------------------------|
E|---------------------------------------------------------------------------|

e|-------0----------0-------------0-------------------------|
B|---------3------3---3---------3---3-----------------------|
G|-----2-----2-H4-------------0-----------------------------|
D|--0-------------------0H2H4---------4-/5-4P2-P0-----------|
A|------------------------------------------------4-P2-P0---|
E|----------------------------------------------------------|

e|---5--3--2-------0----------0-----|
B|---------------3------3--3----3---|
G|----------------------------------|
D|---0--0--0------------------------|
A|------------2---------1--0--------|
E|----------------------------------|

e|-------0----------0-------------0-------------------------|
B|---------3------3---3---------3---3-----------------------|
G|-----2-----2-H4-------------0-----------------------------|
D|--0-------------------0H2H4---------4-/5-4P2-P0-----------|
A|------------------------------------------------4-P2-P0---|
E|----------------------------------------------------------|


e|--------------------------------------------------------------2------------|
B|--------------------------------------------------------------3------------|
G|--------------------------------------------------------------2------------|
D|--4-/5-4P2-P0----------4-/5-P2-P0----------4/5-P2-P0----------0------------|
A|--------------4-P2-P0-------------4-P2-P0------------4-P2-P0--0------------|
E|--------------------------------------------------------------2------------|


************************************

| /   slide up
| \   slide down
| h   hammer-on
| p   pull-off
| ~   vibrato
| +   harmonic
| x   Mute note
| b   Bend
| pb  Pre-bend
| br  Bend release
| pbr Pre-bend release
| brb Bend release bend

************************************
Добавлено: 22.05.2012
Другие материалы по этой песне:

Страница создана 22.05.2012
http://primanota.ru/steve-howe/masquerade-chords.htm
Привет, Гость.
Предлагаем пройти революционный курс по гитаре.
Подарок от PrimaNota.Ru, забирай!