PrimaNota.ru - самый крупный в мире бесплатный архив песенных текстов, аккордов, табулатур и нот


Steve Howe - Heritage - таба, видео

Регистрация Запомнить меня
Войти через:  Facebook Google Twitter Vk Yandex Mail.ru

Steve Howe - Heritage - таба, видео

Печатать
Просмотров: 56
Author: Steve Howe
Title: Heritage
Album: "Not Necessarily Acoustic", live 1994

Tab: AlienJ
[shtg] Steve Howe Transcription Guide
http://perso.wanadoo.es/alienj
telebanda@wanadoo.es


                                                   
E||--5----3----1----0----|--------0--1--5----7----|
B||----------------------|--1--3------------------|
G||----------------------|------------------------|
D||--3----2----0---------|--------------3----5----|
A||-----------------3----|------------------------|
E||----------------------|------------------------|


                                                    
--8----10------------------|--5----3----1----0-----|
---------------------------|--------------------1--|
------------------------0--|-----------------------|
--7----9-----10--9--9/7----|--3----2----0----------|
---------------------------|-----------------3-----|
---------------------------|-----------------------|


                                                                      
-----0--3h1h0-----------------|--------------------|-----------------|
--3----------------------0----|--1--------1-----1--|--0----1----3----|
---------------0----2---------|-----0--------0-----|-----------------|
------------------------------|--------2-----------|-----------------|
------------------------------|--3-----------------|-----------------|
---------------3----1----3----|--------------------|--3----1----3----|


                                                               
--0-----------------|--0-----------------|--0-----------------|
-----1-----1-----1--|-----1-----1-----1--|-----1-----1-----1--|
--------------0-----|--------------0-----|--------------0-----|
--------2-----------|--------2-----------|--------2-----------|
--3-----------------|--3-----------------|--3-----------------|
--------------------|--------------------|--------------------|


                                                                       
--3---------------0---------------|-----------------------------------|
----------------------------------|--3----1----1h3h1--0---------------|
-------------0---------------0----|-----------------------------------|
----------2---------------2-------|------------------------------0----|
-------3---------------3----------|---------------------------2-------|
----------------------------------|------------------------3----------|


                                                       
----------------------------|-------------------------|
----------------------------|-------------------------|
--0---------------2----0----|--0h2h0--0----------0----|
-------------0--------------|-----------------2-------|
----------2-----------------|--------------3----------|
-------3--------------------|-------------------------|


                                                                          
--3---------------0----|-----------------------|-------------------------|
-----------------------|-------------3----1----|--1h3h1--0---------------|
-------------0---------|--------0--------------|-------------------------|
----------2------------|-----2-----------------|--------------------0----|
-------3---------------|--3--------------------|-----------------2-------|
-----------------------|-----------------------|--------------3----------|


                                                                         
----------------------------|----------------------|--5--3--1--0--------|
----------------------------|---------1------------|--------------3--1--|
--0---------------2----0----|--0h2h0--0------------|--------------------|
-------------0--------------|---------2------------|--3-----------------|
----------2-----------------|---------3------------|--------------------|
-------3--------------------|----------------------|--------------------|


                                                              
-----0--3h1h0---------|-----------------|--3--------3-----3--|
--3------------3h1h0--|--0---------0----|-----1--------------|
----------------------|-------2---------|--------------0-----|
----------------------|-----------------|--------2-----------|
----------------------|-----------------|--3-----------------|
----------------------|--3----1----3----|--------------------|


                                                                
--0--------0-----0--|---------------------|--------------------|
-----1--------------|--3--3--1--1--1h3h1--|--0-----------0-----|
--------------0-----|--------------0------|-----0-----0-----0--|
--------2-----------|--------2------------|--------------------|
--3-----------------|--3------------------|--------2-----------|
--------------------|---------------------|--3-----------------|


                                                              
-------------------|---------------------|----------------3--|
-------------------|---------------------|----------1--------|
--0-------0-----0--|--2--2--0--0--0h2h0--|--0----------0-----|
-------------------|--------------0------|-------2-----------|
-------------2-----|--------2------------|--3----------------|
-------3-----------|--3------------------|-------------------|


                                                                
--3--------3-----3--|--0--------0-----0--|---------------------|
-----1--------------|-----1--------------|--3--3--1--1--1h3h1--|
--------------0-----|--------------0-----|--------------0------|
--------2-----------|--------2-----------|--------2------------|
--3-----------------|--3-----------------|--3------------------|
--------------------|--------------------|---------------------|


                                                               
--------------------|-------------------|---------------------|
--0-----------0-----|-------------------|---------------------|
-----0-----0-----0--|--0-------0-----0--|--2--2--0--0--0h2h0--|
--------------------|-------------------|--------------0------|
--------2-----------|-------------2-----|--------2------------|
--3-----------------|-------3-----------|--3------------------|


                                                                         
---------------|------------------|------------------|------------------|
--1------------|------------------|------------------|------------------|
--0------------|--0--2--0----0----|--0--2--0----0----|--0--2--0----2----|
--2------------|-------------2----|-------------0----|-------------2----|
--3------------|-------------3----|-------------2----|------------------|
---------------|------------------|------------------|------------------|


                                                                       
-----------------|------------------|------------------|--------------|
-----------------|------------------|------------------|--------------|
------------0----|------------------|------------------|-----------2--|
-------0----0----|--0--2--3---------|--0--2--3---------|--0--2--3-----|
--3---------2----|------------------|------------------|--------------|
-----------------|-------------3----|-------------1----|--------------|


                                                            
--------------------|--------3/-5/-3----|-------3/-5/-3----|
--------------------|-----1-------------|--1---------------|
-----0-----0--------|--0----------------|--0---------------|
--2-----0--------2--|-------------------|--2---------------|
--------------3-----|-------------------|--3---------------|
--------------------|-------------------|------------------|


                                                                           
-------3/-5/-3----|--0--------------|----------0--1----|----------0--1----|
--3---------------|--1----1----3----|--3----3----------|-------3----------|
--0---------------|--2--------------|--0---------------|------------------|
--0---------------|--2--------------|--0---------------|------------------|
--2---------------|--0--------------|--2---------------|------------------|
------------------|-----------------|------------------|--3---------------|


                                                             
----------0--1----|--0h1h0-------0-----|--------------------|
-------3----------|---------3-------1--|-----1--------1-----|
-------------2----|--0h2h0-------------|--------2--------2--|
------------------|---------3----------|--2--------2--------|
------------------|--------------0-----|--------------------|
--1---------------|--------------------|--------------------|


                                                            
--------------8--|-----7-----5--3--3--|--x--3--x--3--3--3--|
-----------------|--------------0--0--|--x--0--x--0--0--0--|
-----------9-----|--7-----5-----0--0--|--x--0--x--0--0--0--|
--2--------------|--------------2-----|--------------2-----|
-----------------|--------------2-----|--------------2-----|
-----------------|--------------0-----|--------------0-----|


                                                             
--x--3--x--3--3----|--------------10--|------8-----7--5-----|
--x--0--x--0--0----|------------------|------------------3--|
--x--0--x--0--0----|----------12------|--10-----9-----------|
--------------0----|------------------|---------------0-----|
--------------2----|------------------|---------------------|
--------------3----|------------------|---------------------|


                                                                          
-----5-----5--3-----|--------3-----1-----|--------1----|--8----7----5----|
--------3--------3--|-----3-----3-----3--|-----3-------|--6----5----3----|
--2-----------------|--2-----------2-----|--2----------|-----------------|
--------------0-----|--------------------|-------------|-----------------|
--------------------|--------------------|-------------|-----------------|
--------------------|--------------------|-------------|-----------------|


                                                                  
--5--3--1--0--------|-----0--1--3--1h3h1h0--|--5--3--1--3--5--7--|
--------------3--1--|--3--------------------|--------------------|
--------------------|-----------------------|--------------------|
--3-----------------|-----------------------|--3-----------------|
--------------------|-----------------------|--------------------|
--------------------|-----------------------|--------------------|


                                                                  
--5--7--8--10--12----|--5--3--1--0--------|-----0--3h1h0---------|
---------------------|--------------3--1--|--3------------3h1h0--|
---------------------|--------------------|----------------------|
---------------------|--3-----------------|----------------------|
---------------------|--------------------|----------------------|
---------------------|--------------------|----------------------|


                                                         
-----------------|--------------------|-----------------|
------------0----|--1--------1-----1--|--0----1----3----|
--0----2---------|-----0--------0-----|-----------------|
-----------------|--------2-----------|-----------------|
-----------------|--3-----------------|-----------------|
--3----1----3----|--------------------|--3----1----3----|


                                                            
--0-----------------|-------0----1----|--3--------3-----3--|
-----1-----1-----1--|--3--------------|-----1--------------|
--------------0-----|-----------------|--------------0-----|
--------2-----------|-----------------|--------2-----------|
--3-----------------|-----------------|--3-----------------|
--------------------|--3----1----3----|--------------------|


                                                                
--0--------0-----0--|---------------------|--------------------|
-----1--------------|--3--3--1--1--1h3h1--|--0-----------0-----|
--------------0-----|--------------0------|-----0-----0-----0--|
--------2-----------|--------2------------|--------------------|
--3-----------------|--3------------------|--------2-----------|
--------------------|---------------------|--3-----------------|


                                                              
-------------------|---------------------|----------------3--|
-------------------|---------------------|----------1--------|
--0-------0-----0--|--2--2--0--0--0h2h0--|--0----------0-----|
-------------------|--------------0------|-------2-----------|
-------------2-----|--------2------------|--3----------------|
-------3-----------|--3------------------|-------------------|


                                                                
--3--------3-----3--|--0--------0-----0--|---------------------|
-----1--------------|-----1--------------|--3--3--1--1--1h3h1--|
--------------0-----|--------------0-----|--------------0------|
--------2-----------|--------2-----------|--------2------------|
--3-----------------|--3-----------------|--3------------------|
--------------------|--------------------|---------------------|


                                                                 
--------------------|------------------|------------------------|
--0-----------0-----|------------------|------------------------|
-----0-----0-----0--|------------------|----------------0h1h2h3-|
--------------------|------------------|--------0h1h2h3---------|
--------2-----------|----------0h---1h-|--2h-3------------------|
--3-----------------|--3h-4------------|------------------------|


                                                            
----------0h1h2--|--3--------3-----3--|--0--------0-----0--|
--0h1h2h3--------|-----1--------------|-----1--------------|
-----------------|--------------0-----|--------------0-----|
-----------------|--------2-----------|--------2-----------|
-----------------|--3-----------------|--3-----------------|
-----------------|--------------------|--------------------|


                                                              
---------------------|--------------------|------------------|
--3--3--1--1--1h3h1--|--0-----------0-----|------------------|
--------------0------|-----0-----0-----0--|------------------|
--------2------------|--------------------|------------------|
--3------------------|--------2-----------|----------0h---1h-|
---------------------|--3-----------------|--3h-4------------|


                                                         
------------------------|----------0h1h2--|--3/-5/-3----|
------------------------|--0h1h2h3--------|-------------|
----------------0h1h2h3-|-----------------|-------------|
--------0h1h2h3---------|-----------------|-------------|
--2h-3------------------|-----------------|-------------|
------------------------|-----------------|-------------|


                                                                           
-------3/-5/-3----|-------3/-5/-3----|--0--------------|----------0--1----|
--1---------------|--3---------------|--1----1----3----|--3----3----------|
--0---------------|--0---------------|--2--------------|--0---------------|
--2---------------|--0---------------|--2--------------|--0---------------|
--3---------------|--2---------------|--0--------------|--2---------------|
------------------|------------------|-----------------|------------------|


                                                           
----------0--1----|----------0--1----|--0h1h0-------------|
-------3----------|-------3----------|---------3----1-----|
------------------|-------------2----|--0h2h0----------0--|
------------------|------------------|---------3----------|
------------------|------------------|--------------3-----|
--3---------------|--1---------------|--------------------|


                                                          
--------3/-5/-3----|--0----3/-5/-3----|--0----3/-5/-3----|
-------------------|--1---------------|--3---------------|
-------------------|--0---------------|--0---------------|
--2----------------|--2---------------|--0---------------|
-----3-------------|--3---------------|--2---------------|
-------------------|------------------|--3---------------|


                                                             
--0--------------|--0-------0--1----|----------0--1---------|
--1----1----3----|--3----3----------|-------3---------------|
--2--------------|--0---------------|-----------------------|
--2--------------|--0---------------|-----------------------|
--0--------------|--2---------------|-----------------------|
-----------------|--3---------------|--3---------------1----|


                                                             
-----0--1----0h1h0---|-------1----0h1h0---|-------5----3----|
--3------------------|--3-----------------|--3--------------|
--------2----0h2h0---|-------2----0h2h0---|-------5----4----|
---------------------|--3-----------------|--3--------------|
---------------------|--------------------|-----------------|
---------------------|--------------------|-----------------|


                                                            
--1--------------|--------12----------|--12----------12----|
-----------------|--------------------|--------------------|
--2--------------|--12----------12----|--------12----------|
-----------------|--------------------|--------------------|
------------7----|--------------------|--------------------|
-------8---------|--------------------|--------------------|


                          
------------12----------||
------------------------||
------------------12----||
------------------------||
-------7----------------||
--8---------------------||
     
Добавлено: 03.11.2013
Другие материалы по этой песне:

Страница создана 20.04.2012
http://primanota.ru/steve-howe/heritage-chords.htm
Привет, Гость.
Предлагаем пройти революционный курс по гитаре.
Подарок от PrimaNota.Ru, забирай!