PrimaNota.ru - самый крупный в мире бесплатный архив песенных текстов, аккордов, табулатур и нот


Steve Harris - Us Against The World - таба, бас-таба, драм-таба, видео

Регистрация Запомнить меня
Войти через:  Facebook Google Twitter Vk Yandex Mail.ru

Steve Harris - Us Against The World - таба, бас-таба, драм-таба, видео

Печатать
Просмотров: 60
                             Us Against The World                               

                                 Steve Harris

Instruments:
- G #1
- G #2
- G #3
- Voice Melody
- Keyboard #1
- Keyboard #2
- Keyboard #3


Guitar #1:

David Hawkins


          Intro                                                     
     S    W                   W                   W                 
E||----|-------------------|-------------------|-------------------|
B||----|-------------------|-------------------|-------------------|
G||----|-------------------|-------------------|-------------------|
D||----|-------------------|-------------------|-------------------|
A||----|-------------------|-------------------|-------------------|
E||----|-------------------|-------------------|-------------------|


  W                   W                   W                   W                 
-------------------|-------------------|-------------------|-------------------|
-------------------|-------------------|-------------------|-------------------|
-------------------|-------------------|-------------------|-------------------|
-------------------|-------------------|-------------------|-------------------|
-------------------|-------------------|-------------------|-------------------|
-------------------|-------------------|-------------------|-------------------|


                      Riff A                                                
  W                   Q       Q     Q     Q        E.   E.   E   H          
-------------------|---------19----17----15----|-------15---17--15~--------|
-------------------|---------------------------|--19-----------------------|
-------------------|---------------------------|---------------------------|
-------------------|---------------------------|---------------------------|
-------------------|---------------------------|---------------------------|
-------------------|---------------------------|---------------------------|


                                             SH    SH         
   E   E    Q     Q     Q        E.   E.     E     H          
---L---L\--19----17----15----|-------15---<>17--<>15~--------|
-----------------------------|--19---------------------------|
-----------------------------|-------------------------------|
-----------------------------|-------------------------------|
-----------------------------|-------------------------------|
-----------------------------|-------------------------------|


   E   E   Q     Q     Q        E.   E.   E   H          
---L\-----19----17----15----|-------15---17--15~--------|
----------------------------|--19-----------------------|
----------------------------|---------------------------|
----------------------------|---------------------------|
----------------------------|---------------------------|
----------------------------|---------------------------|


                                             SH    SH        
   E   E    Q     Q     Q        E.   E.     E     H         
---L---L\--19----17----15----|-------15---<>17--<>15--------|
-----------------------------|--19--------------------------|
-----------------------------|------------------------------|
-----------------------------|------------------------------|
-----------------------------|------------------------------|
-----------------------------|------------------------------|


   Verse Riff                                                            
                               Csus2               Dsus2                 
                               ^                   ^                     
   E.        S H.              W                   Q     E  E  H         
---L\-----------------------|-------------------|-----------0--L--------|
----------------------------|--3----------------|--3-----L--L--3--------|
----------------------------|--0----------------|--2-----L--L-----------|
----------------------------|--x----------------|--0-----L--L-----------|
----------------------------|--3----------------|-----------------------|
----------------------------|-------------------|-----------------------|


  Em7                 Em7                 Csus2             
  v                   ^                   ^                 
  W                   W                   W                 
-------------------|-------------------|-------------------|
--3----------------|--3----------------|--3----------------|
--0----------------|--0----------------|--0----------------|
--2----------------|--2----------------|--x----------------|
--2----------------|--2----------------|--3----------------|
-------------------|-------------------|-------------------|


  Dsus2                   Em7                 Em7               
  ^                       v                   ^                 
  Q     E  E  H           W                   W                 
-----------0--L--------|-------------------|-------------------|
--3-----L--L--3--------|--3----------------|--3----------------|
--2-----L--L-----------|--0----------------|--0----------------|
--0-----L--L-----------|--2----------------|--2----------------|
-----------------------|--2----------------|--2----------------|
-----------------------|-------------------|-------------------|


  Csus2               Dsus2                   Em7               
  ^                   ^                       v                 
  W                   Q     E  E  H           W                 
-------------------|-----------0--L--------|-------------------|
--3----------------|--3-----L--L--3--------|--3----------------|
--0----------------|--2-----L--L-----------|--0----------------|
--x----------------|--0-----L--L-----------|--2----------------|
--3----------------|-----------------------|--2----------------|
-------------------|-----------------------|-------------------|


  Em7                 Csus2               Dsus2                 
  ^                   ^                   ^                     
  W                   W                   Q     E  E  H         
-------------------|-------------------|-----------0--L--------|
--3----------------|--3----------------|--3-----L--L--3--------|
--0----------------|--0----------------|--2-----L--L-----------|
--2----------------|--x----------------|--0-----L--L-----------|
--2----------------|--3----------------|-----------------------|
-------------------|-------------------|-----------------------|


                      Pre-Chorus                            
  Em7                 Csus2               D5                
  v                   ^                   ^                 
  W                   W                   W                 
-------------------|-------------------|-------------------|
--3----------------|--3----------------|--3----------------|
--0----------------|--0----------------|--2----------------|
--2----------------|--x----------------|--0----------------|
--2----------------|--3----------------|-------------------|
-------------------|-------------------|-------------------|


                         Chorus                                         
                         Em7                      Cadd9                 
                                   v                       v            
  H.            Q        Q      E  E  H           Q     E  E  H         
----------------------|------------0--L--------|-----------0--L--------|
--L-------------------|------------3--L--------|-----------3--L--------|
--L-------------------|--0------L--0--L--------|--0-----L--0--L--------|
--L-------------------|--2------L--2--L--------|--x-----L--------------|
---------------12\----|--2------L--------------|--3-----L--------------|
---------------12\----|------------------------|-----------------------|


  Dsus2                                              Em7               
                                            SH       ^                 
  Q     E  E  H           E.  E.  E.  E.    Q        W                 
-----------0--L--------|--------------------------|-------------------|
--3-----L--L--3--------|--------------------------|--3----------------|
--2-----L--L-----------|------------------<>4~----|--0----------------|
--0-----L--L-----------|--2---4---5---4-----------|--2----------------|
-----------------------|--------------------------|--2----------------|
-----------------------|--------------------------|-------------------|


  Csus2               Dsus2                                            
  ^                                                             SH     
  W                   Q     E  E  H           E.  E.  E.  E.    Q      
-------------------|-----------0--L--------|--------------------------|
--3----------------|--3-----L--L--3--------|--------------------------|
--0----------------|--2-----L--L-----------|------------------<>4~----|
--x----------------|--0-----L--L-----------|--2---4---5---4-----------|
--3----------------|-----------------------|--------------------------|
-------------------|-----------------------|--------------------------|


  Riff A                                                
  Q       Q     Q     Q        E.   E.   E   H          
---------19----17----15----|-------15---17--15~--------|
---------------------------|--19-----------------------|
---------------------------|---------------------------|
---------------------------|---------------------------|
---------------------------|---------------------------|
---------------------------|---------------------------|


                                             SH    SH         
   E   E    Q     Q     Q        E.   E.     E     H          
---L---L\--19----17----15----|-------15---<>17--<>15~--------|
-----------------------------|--19---------------------------|
-----------------------------|-------------------------------|
-----------------------------|-------------------------------|
-----------------------------|-------------------------------|
-----------------------------|-------------------------------|


   Verse Riff                                                            
                               Csus2               Dsus2                 
                               ^                   ^                     
   E.        S H.              W                   Q     E  E  H         
---L\-----------------------|-------------------|-----------0--L--------|
----------------------------|--3----------------|--3-----L--L--3--------|
----------------------------|--0----------------|--2-----L--L-----------|
----------------------------|--x----------------|--0-----L--L-----------|
----------------------------|--3----------------|-----------------------|
----------------------------|-------------------|-----------------------|


  Em7                 Em7                 Csus2             
  v                   ^                   ^                 
  W                   W                   W                 
-------------------|-------------------|-------------------|
--3----------------|--3----------------|--3----------------|
--0----------------|--0----------------|--0----------------|
--2----------------|--2----------------|--x----------------|
--2----------------|--2----------------|--3----------------|
-------------------|-------------------|-------------------|


  Dsus2                   Em7                 Em7               
  ^                       v                   ^                 
  Q     E  E  H           W                   W                 
-----------0--L--------|-------------------|-------------------|
--3-----L--L--3--------|--3----------------|--3----------------|
--2-----L--L-----------|--0----------------|--0----------------|
--0-----L--L-----------|--2----------------|--2----------------|
-----------------------|--2----------------|--2----------------|
-----------------------|-------------------|-------------------|


  Csus2               Dsus2                   Em7               
  ^                   ^                       v                 
  W                   Q     E  E  H           W                 
-------------------|-----------0--L--------|-------------------|
--3----------------|--3-----L--L--3--------|--3----------------|
--0----------------|--2-----L--L-----------|--0----------------|
--x----------------|--0-----L--L-----------|--2----------------|
--3----------------|-----------------------|--2----------------|
-------------------|-----------------------|-------------------|


  Em7                 Csus2               Dsus2                 
  ^                   ^                   ^                     
  W                   W                   Q     E  E  H         
-------------------|-------------------|-----------0--L--------|
--3----------------|--3----------------|--3-----L--L--3--------|
--0----------------|--0----------------|--2-----L--L-----------|
--2----------------|--x----------------|--0-----L--L-----------|
--2----------------|--3----------------|-----------------------|
-------------------|-------------------|-----------------------|


                      Pre-Chorus                            
  Em7                 Csus2               D5                
  v                   ^                   ^                 
  W                   W                   W                 
-------------------|-------------------|-------------------|
--3----------------|--3----------------|--3----------------|
--0----------------|--0----------------|--2----------------|
--2----------------|--x----------------|--0----------------|
--2----------------|--3----------------|-------------------|
-------------------|-------------------|-------------------|


                         Chorus                                         
                         Em7                      Cadd9                 
                                   v                       v            
  H.            Q        Q      E  E  H           Q     E  E  H         
----------------------|------------0--L--------|-----------0--L--------|
--L-------------------|------------3--L--------|-----------3--L--------|
--L-------------------|--0------L--0--L--------|--0-----L--0--L--------|
--L-------------------|--2------L--2--L--------|--x-----L--------------|
---------------12\----|--2------L--------------|--3-----L--------------|
---------------12\----|------------------------|-----------------------|


  Dsus2                                              Em7               
                                            SH       ^                 
  Q     E  E  H           E.  E.  E.  E.    Q        W                 
-----------0--L--------|--------------------------|-------------------|
--3-----L--L--3--------|--------------------------|--3----------------|
--2-----L--L-----------|------------------<>4~----|--0----------------|
--0-----L--L-----------|--2---4---5---4-----------|--2----------------|
-----------------------|--------------------------|--2----------------|
-----------------------|--------------------------|-------------------|


  Csus2               Dsus2                                            
  ^                                                             SH     
  W                   Q     E  E  H           E.  E.  E.  E.    Q      
-------------------|-----------0--L--------|--------------------------|
--3----------------|--3-----L--L--3--------|--------------------------|
--0----------------|--2-----L--L-----------|------------------<>4~----|
--x----------------|--0-----L--L-----------|--2---4---5---4-----------|
--3----------------|-----------------------|--------------------------|
-------------------|-----------------------|--------------------------|


  Bridge                                        
  Csus2                                         
  ^                   ^                         
  W                   Q    S. S Q    S S E  S.  
-------------------|---------------------------|
--3----------------|---------------------------|
--0----------------|--7----L--x-7----L-x-7--L--|
--x----------------|--7----L--x-7----L-x-7--L--|
--3----------------|--5----L--x-5----L-x-5--L--|
-------------------|---------------------------|


  PM PM PM PM PM PM PM PM PM PM PM PM   SH     
  S  S  S  S  S  S  S  S  S  S  S  S    Q      
----------------------------------------------|
----------------------------------------------|
--------------------------------------<>4~----|
----------------------------------------------|
-----------------------------0--0--0----------|
--0--0--0--2--2--2--3--3--3-------------------|


                                               Csus2             
  PM PM PM PM PM PM PM PM PM PM PM PM          ^                 
  S  S  S  S  S  S  S  S  S  S  S  S  Q        W                 
--------------------------------------------|-------------------|
--------------------------------------------|--3----------------|
--------------------------------------------|--0----------------|
--------------------------------------------|--x----------------|
-----------------------------0--0--0--2~----|--3----------------|
--0--0--0--2--2--2--3--3--3-----------------|-------------------|


  ^                           PM PM PM PM PM PM PM PM PM PM PM PM   SH     
  Q    S. S Q    S S E  S.    S  S  S  S  S  S  S  S  S  S  S  S    Q      
---------------------------|----------------------------------------------|
---------------------------|----------------------------------------------|
--7----L--x-7----L-x-7--L--|--------------------------------------<>4~----|
--7----L--x-7----L-x-7--L--|----------------------------------------------|
--5----L--x-5----L-x-5--L--|-----------------------------0--0--0----------|
---------------------------|--0--0--0--2--2--2--3--3--3-------------------|


  PM PM PM PM PM PM PM PM PM PM PM PM        
  S  S  S  S  S  S  S  S  S  S  S  S  Q      
--------------------------------------------|
--------------------------------------------|
--------------------------------------------|
--------------------------------------------|
-----------------------------0--0--0--2~----|
--0--0--0--2--2--2--3--3--3-----------------|


   Solo David Hawkins                                              
   S                  S  S  S  S  S  S  S  S  S  S  S  S  S  S  S  
--14-----------------12-10-12-15-12-10-12-14-12-10-12-15-12-10-12-|
------------------------------------------------------------------|
------------------------------------------------------------------|
------------------------------------------------------------------|
------------------------------------------------------------------|
------------------------------------------------------------------|


   S  S  S  S  S  S  S  S  S  S  S  S  S  S  S  S  
--15-14-12-14-17-14-12-14-15-14-12-14-17-14-12-14-|
--------------------------------------------------|
--------------------------------------------------|
--------------------------------------------------|
--------------------------------------------------|
--------------------------------------------------|


   S  S  S  S  S  S  S  S  S  S  S  S  Q      
--17-15-14-15-19-15-14-15-17-15-14-15-19~----|
---------------------------------------------|
---------------------------------------------|
---------------------------------------------|
---------------------------------------------|
---------------------------------------------|


   S S S  S S S  S S S  S S S  S  S  S  S  
--17-0-0-15-0-0-14-0-0-12-0-0-15-14-12----|
---------------------------------------15-|
------------------------------------------|
------------------------------------------|
------------------------------------------|
------------------------------------------|


                                                         |---3---|           
   S  S  S  S  S  S  S  S  H             E.   E.   Q     S   S   S  E    E   
-----12------------------------------|--------------------------------------|
--15----13-15-12-13----12------------|--15---13---12----12h-13p-12----------|
--------------------14----12~--------|-----------------------------14s--12--|
-------------------------------------|--------------------------------------|
-------------------------------------|--------------------------------------|
-------------------------------------|--------------------------------------|


                                                          Pre-Chorus        
                                                          Csus2             
    NH                                                    ^                 
    W                    E.    E.    E.    E   E.   E     W                 
---------------------|--12----14----15-----L---L\------|-------------------|
---------------------|--15b---17b---19b----L---L\------|--3----------------|
--<>5----------------|---------------------------------|--0----------------|
---------------------|---------------------------------|--x----------------|
---------------------|---------------------------------|--3----------------|
---------------------|---------------------------------|-------------------|


                                             Chorus                 
  D5                                         Em7                    
  ^                                                    v            
  W                   H.            Q        Q      E  E  H         
-------------------|----------------------|------------0--L--------|
--3----------------|--L-------------------|------------3--L--------|
--2----------------|--L-------------------|--0------L--0--L--------|
--0----------------|--L-------------------|--2------L--2--L--------|
-------------------|---------------12\----|--2------L--------------|
-------------------|---------------12\----|------------------------|


  Cadd9                   Dsus2                                            
           v                                                        SH     
  Q     E  E  H           Q     E  E  H           E.  E.  E.  E.    Q      
-----------0--L--------|-----------0--L--------|--------------------------|
-----------3--L--------|--3-----L--L--3--------|--------------------------|
--0-----L--0--L--------|--2-----L--L-----------|--------------2---<>4~----|
--x-----L--------------|--0-----L--L-----------|--2---4---5---------------|
--3-----L--------------|-----------------------|--------------------------|
-----------------------|-----------------------|--------------------------|


  Em7                 Csus2               Dsus2                 
  ^                   ^                                         
  W                   W                   Q     E  E  H         
-------------------|-------------------|-----------0--L--------|
--3----------------|--3----------------|--3-----L--L--3--------|
--0----------------|--0----------------|--2-----L--L-----------|
--2----------------|--x----------------|--0-----L--L-----------|
--2----------------|--3----------------|-----------------------|
-------------------|-------------------|-----------------------|


                             Outro Chorus                 
                             Em7                          
                    SH                       v            
  E.  E.  E.  E.    Q        Q            E  E  H         
--------------------------|------------------0--L--------|
--------------------------|------------------3--L--------|
--------------2---<>4~----|--0------------L--0--L--------|
--2---4---5---------------|--2------------L--2--L--------|
--------------------------|--2------------L--------------|
--------------------------|------------------------------|


  Cadd9                   Dsus2                                            
           v                                                        SH     
  Q     E  E  H           Q     E  E  H           E.  E.  E.  E.    Q      
-----------0--L--------|-----------0--L--------|--------------------------|
-----------3--L--------|--3-----L--L--3--------|--------------------------|
--0-----L--0--L--------|--2-----L--L-----------|--------------2---<>4~----|
--x-----L--------------|--0-----L--L-----------|--2---4---5---------------|
--3-----L--------------|-----------------------|--------------------------|
-----------------------|-----------------------|--------------------------|


  Em7                 Csus2               Dsus2                 
  ^                   ^                                         
  W                   W                   Q     E  E  H         
-------------------|-------------------|-----------0--L--------|
--3----------------|--3----------------|--3-----L--L--3--------|
--0----------------|--0----------------|--2-----L--L-----------|
--2----------------|--x----------------|--0-----L--L-----------|
--2----------------|--3----------------|-----------------------|
-------------------|-------------------|-----------------------|


  Outro                                                                     
                      SH       PM PM PM PM PM PM  PM PM PMPM PM PM   SH     
  E.    E.  E.  E.    Q        S  S  S  S  S  S   S  S  S S  S  S    Q      
----------------------------|----------------------------------------------|
----------------------------|----------------------------------------------|
----------------2---<>4~----|----------------------------------------------|
--2-----4---5---------------|-----------------------------7--7--7--<>9~----|
----------------------------|--7--7--7--9--9--9--10-10-10------------------|
----------------------------|----------------------------------------------|


  PM  PM  PM             
  E.  E.  E.  E.  Q      
-----------------------||
-----------------------||
-----------------------||
--9---9---9------------||
--7---7---7------------||
--0---0---0------------||




Guitar #2:

Grahame Leslie


          Intro                                                     
     S    W                   W                   W                 
E||----|-------------------|-------------------|-------------------|
B||----|-------------------|-------------------|-------------------|
G||----|-------------------|-------------------|-------------------|
D||----|-------------------|-------------------|-------------------|
A||----|-------------------|-------------------|-------------------|
E||----|-------------------|-------------------|-------------------|


  W                   W                   W                   W                 
-------------------|-------------------|-------------------|-------------------|
-------------------|-------------------|-------------------|-------------------|
-------------------|-------------------|-------------------|-------------------|
-------------------|-------------------|-------------------|-------------------|
-------------------|-------------------|-------------------|-------------------|
-------------------|-------------------|-------------------|-------------------|


                      Riff A                                             
  W                   Q       Q      Q    Q       E.  E.   E  H          
-------------------|---------------------------|------------------------|
-------------------|---------10b----10----8----|--7---8---10--8~--------|
-------------------|---------------------------|------------------------|
-------------------|---------------------------|------------------------|
-------------------|---------------------------|------------------------|
-------------------|---------------------------|------------------------|


  E  E    Q      Q    Q       E.  E.   E  H          
---------------------------|------------------------|
--L--L\--10b----10----8----|--7---8---10--8~--------|
---------------------------|------------------------|
---------------------------|------------------------|
---------------------------|------------------------|
---------------------------|------------------------|


  E   E   Q      Q    Q       E.  E.   E  H          
---------------------------|------------------------|
--L\-----10b----10----8----|--7---8---10--8~--------|
---------------------------|------------------------|
---------------------------|------------------------|
---------------------------|------------------------|
---------------------------|------------------------|


  E  E    Q      Q    Q       E.  E.   E  H          
---------------------------|------------------------|
--L--L\--10b----10----8----|--7---8---10--8~--------|
---------------------------|------------------------|
---------------------------|------------------------|
---------------------------|------------------------|
---------------------------|------------------------|


  Verse Riff                                                         
                               C                   D                 
                               ^                   ^                 
  E.         S H.              W                   W                 
----------------------------|-------------------|-------------------|
--L\------------------------|--1----------------|--3----------------|
----------------------------|--0----------------|--2----------------|
----------------------------|--2----------------|--4----------------|
----------------------------|--3----------------|--5----------------|
----------------------------|-------------------|-------------------|


  E                   E                   C                   D                 
  v                   ^                   ^                   ^                 
  W                   W                   W                   W                 
-------------------|-------------------|-------------------|-------------------|
--5----------------|--5----------------|--1----------------|--3----------------|
--4----------------|--4----------------|--0----------------|--2----------------|
--2----------------|--2----------------|--2----------------|--4----------------|
--2----------------|--2----------------|--3----------------|--5----------------|
-------------------|-------------------|-------------------|-------------------|


  E                   E                   C                   D                 
  v                   ^                   ^                   ^                 
  W                   W                   W                   W                 
-------------------|-------------------|-------------------|-------------------|
--5----------------|--5----------------|--1----------------|--3----------------|
--4----------------|--4----------------|--0----------------|--2----------------|
--2----------------|--2----------------|--2----------------|--4----------------|
--2----------------|--2----------------|--3----------------|--5----------------|
-------------------|-------------------|-------------------|-------------------|


  E                   E                   C                   D                 
  v                   ^                   ^                   ^                 
  W                   W                   W                   W                 
-------------------|-------------------|-------------------|-------------------|
--5----------------|--5----------------|--1----------------|--3----------------|
--4----------------|--4----------------|--0----------------|--2----------------|
--2----------------|--2----------------|--2----------------|--4----------------|
--2----------------|--2----------------|--3----------------|--5----------------|
-------------------|-------------------|-------------------|-------------------|


                      Pre-Chorus                                                
  E                   C                   D                                     
  v                   ^                   ^                                     
  W                   W                   W                   W                 
-------------------|-------------------|-------------------|-------------------|
--5----------------|--1----------------|--3----------------|--L----------------|
--4----------------|--0----------------|--2----------------|--L----------------|
--2----------------|--2----------------|--4----------------|--L----------------|
--2----------------|--3----------------|--5----------------|--L----------------|
-------------------|-------------------|-------------------|-------------------|


  Chorus                                                       
  E                    C                    D                  
  H        H           H        H           H        H         
-----------0--------|-----------0--------|-----------2--------|
-----------5--------|-----------1--------|-----------3--------|
--4--------4--------|--0--------0--------|--2--------2--------|
--2-----------------|--2-----------------|--4-----------------|
--2-----------------|--3-----------------|--5-----------------|
--------------------|--------------------|--------------------|


                                               E                  
  PM PM PM PM PM PM PM PM PM PM PM PM PM PM                       
  S  S  S  S  S  S  S  S  S  S  S  S  E  E     H        H         
--------------------------------------------|-----------0--------|
--------------------------------------------|-----------5--------|
--------------------------------------------|--4--------4--------|
--------------------------------------------|--2-----------------|
-----------------------------0--0--0--------|--2-----------------|
--0--0--0--2--2--2--3--3--3-----------3--2--|--------------------|


  C                    D                  
  H        H           H        H         
-----------0--------|-----------2--------|
-----------1--------|-----------3--------|
--0--------0--------|--2--------2--------|
--2-----------------|--4-----------------|
--3-----------------|--5-----------------|
--------------------|--------------------|


                                               Riff A                    
  PM PM PM PM PM PM PM PM PM PM PM PM PM PM                              
  S  S  S  S  S  S  S  S  S  S  S  S  E  E     Q       Q      Q    Q     
--------------------------------------------|---------------------------|
--------------------------------------------|---------10b----10----8----|
--------------------------------------------|---------------------------|
--------------------------------------------|---------------------------|
-----------------------------0--0--0--------|---------------------------|
--0--0--0--2--2--2--3--3--3-----------3--2--|---------------------------|


  E.  E.   E  H            E  E    Q      Q    Q       E.  E.   E  H          
------------------------|---------------------------|------------------------|
--7---8---10--8~--------|--L--L\--10b----10----8----|--7---8---10--8~--------|
------------------------|---------------------------|------------------------|
------------------------|---------------------------|------------------------|
------------------------|---------------------------|------------------------|
------------------------|---------------------------|------------------------|


  Verse Riff                                                         
                               C                   D                 
                               ^                   ^                 
  E.         S H.              W                   W                 
----------------------------|-------------------|-------------------|
--L\------------------------|--1----------------|--3----------------|
----------------------------|--0----------------|--2----------------|
----------------------------|--2----------------|--4----------------|
----------------------------|--3----------------|--5----------------|
----------------------------|-------------------|-------------------|


  E                   E                   C                   D                 
  v                   ^                   ^                   ^                 
  W                   W                   W                   W                 
-------------------|-------------------|-------------------|-------------------|
--5----------------|--5----------------|--1----------------|--3----------------|
--4----------------|--4----------------|--0----------------|--2----------------|
--2----------------|--2----------------|--2----------------|--4----------------|
--2----------------|--2----------------|--3----------------|--5----------------|
-------------------|-------------------|-------------------|-------------------|


  E                   E                   C                   D                 
  v                   ^                   ^                   ^                 
  W                   W                   W                   W                 
-------------------|-------------------|-------------------|-------------------|
--5----------------|--5----------------|--1----------------|--3----------------|
--4----------------|--4----------------|--0----------------|--2----------------|
--2----------------|--2----------------|--2----------------|--4----------------|
--2----------------|--2----------------|--3----------------|--5----------------|
-------------------|-------------------|-------------------|-------------------|


  E                   E                   C                   D                 
  v                   ^                   ^                   ^                 
  W                   W                   W                   W                 
-------------------|-------------------|-------------------|-------------------|
--5----------------|--5----------------|--1----------------|--3----------------|
--4----------------|--4----------------|--0----------------|--2----------------|
--2----------------|--2----------------|--2----------------|--4----------------|
--2----------------|--2----------------|--3----------------|--5----------------|
-------------------|-------------------|-------------------|-------------------|


                      Pre-Chorus                                                
  E                   C                   D                                     
  v                   ^                   ^                                     
  W                   W                   W                   W                 
-------------------|-------------------|-------------------|-------------------|
--5----------------|--1----------------|--3----------------|--L----------------|
--4----------------|--0----------------|--2----------------|--L----------------|
--2----------------|--2----------------|--4----------------|--L----------------|
--2----------------|--3----------------|--5----------------|--L----------------|
-------------------|-------------------|-------------------|-------------------|


  Chorus                                                       
  E                    C                    D                  
  H        H           H        H           H        H         
-----------0--------|-----------0--------|-----------2--------|
-----------5--------|-----------1--------|-----------3--------|
--4--------4--------|--0--------0--------|--2--------2--------|
--2-----------------|--2-----------------|--4-----------------|
--2-----------------|--3-----------------|--5-----------------|
--------------------|--------------------|--------------------|


                                               E                  
  PM PM PM PM PM PM PM PM PM PM PM PM PM PM                       
  S  S  S  S  S  S  S  S  S  S  S  S  E  E     H        H         
--------------------------------------------|-----------0--------|
--------------------------------------------|-----------5--------|
--------------------------------------------|--4--------4--------|
--------------------------------------------|--2-----------------|
-----------------------------0--0--0--------|--2-----------------|
--0--0--0--2--2--2--3--3--3-----------3--2--|--------------------|


  C                    D                  
  H        H           H        H         
-----------0--------|-----------2--------|
-----------1--------|-----------3--------|
--0--------0--------|--2--------2--------|
--2-----------------|--4-----------------|
--3-----------------|--5-----------------|
--------------------|--------------------|


  PM PM PM PM PM PM PM PM PM PM PM PM PM PM  
  S  S  S  S  S  S  S  S  S  S  S  S  E  E   
--------------------------------------------|
--------------------------------------------|
--------------------------------------------|
--------------------------------------------|
-----------------------------0--0--0--------|
--0--0--0--2--2--2--3--3--3-----------3--2--|


  Bridge                                                           
         PM PM PM PM        PM                 PM        PM        
  E      S  S  S  S  Q    S S  Q       Q    S. S  Q    S S  E  S.  
------------------------------------|-----------------------------|
------------------------------------|-----------------------------|
------------------------------------|-----------------------------|
--5------------------5----L----5----|--7----L-----7----L----7--L--|
--3------3--3--3--3--3----L-3--3----|--5----L--5--5----L-5--5--L--|
------------------------------------|-----------------------------|


  PM PM PM PM PM PM PM PM PM PM PM PM        
  S  S  S  S  S  S  S  S  S  S  S  S  Q      
--------------------------------------------|
--------------------------------------------|
--------------------------------------------|
--------------------------------------------|
-----------------------------0--0--0--2~----|
--0--0--0--2--2--2--3--3--3-----------------|


  PM PM PM PM PM PM PM PM PM PM PM PM             PM PM PM PM        PM       
  S  S  S  S  S  S  S  S  S  S  S  S  Q        E  S  S  S  S  Q    S S  Q     
--------------------------------------------|--------------------------------|
--------------------------------------------|--------------------------------|
--------------------------------------------|--------------------------------|
--------------------------------------------|--5--------------5----L----5----|
-----------------------------0--0--0--2~----|--3--3--3--3--3--3----L-3--3----|
--0--0--0--2--2--2--3--3--3-----------------|--------------------------------|


          PM        PM          PM PM PM PM PM PM PM PM PM PM PM PM        
  Q    S. S  Q    S S  E  S.    S  S  S  S  S  S  S  S  S  S  S  S  Q      
-----------------------------|--------------------------------------------|
-----------------------------|--------------------------------------------|
-----------------------------|--------------------------------------------|
--7----L-----7----L----7--L--|--------------------------------------------|
--5----L--5--5----L-5--5--L--|-----------------------------0--0--0--2~----|
-----------------------------|--0--0--0--2--2--2--3--3--3-----------------|


                                               Solo David Hawkins  
                                               C                   
  PM PM PM PM PM PM PM PM PM PM PM PM                              
  S  S  S  S  S  S  S  S  S  S  S  S  Q        W                   
--------------------------------------------|---------------------|
--------------------------------------------|--1------------------|
--------------------------------------------|--0------------------|
--------------------------------------------|--2------------------|
-----------------------------0--0--0--2~----|--3------------------|
--0--0--0--2--2--2--3--3--3-----------------|---------------------|


  D                   E                                       C                 
  W                   W                   W                   W                 
-------------------|-------------------|-------------------|-------------------|
--3----------------|--5----------------|--L----------------|--1----------------|
--2----------------|--4----------------|--L----------------|--0----------------|
--4----------------|--2----------------|--L----------------|--2----------------|
--5----------------|--2----------------|--L----------------|--3----------------|
-------------------|-------------------|-------------------|-------------------|


  D                                                     
                      PM PM PM PM PM PM PM PM PM PM PM  
  W                   S  E  S  E  S  E  S  E  S  E  S   
-------------------|-----------------------------------|
--3----------------|-----------------------------------|
--2----------------|-----------------------------------|
--4----------------|-----------------------------------|
--5----------------|-----7-----7-----7-----7-----7-----|
-------------------|--0-----0-----0-----0-----0-----0--|


                              Pre-Chorus                            
                              C                   D                 
                              ^                   ^                 
  E.  E.  Q     E   E   E     W                   W                 
---------------------------|-------------------|-------------------|
---------------------------|--1----------------|--3----------------|
---------------------------|--0----------------|--2----------------|
---------------------------|--2----------------|--4----------------|
--2---4---5-----L---L\-----|--3----------------|--5----------------|
--0---2---3-----L---L\-----|-------------------|-------------------|


                      Chorus                                  
                      E                    C                  
  W                   H        H           H        H         
-------------------|-----------0--------|-----------0--------|
--L----------------|-----------5--------|-----------1--------|
--L----------------|--4--------4--------|--0--------0--------|
--L----------------|--2-----------------|--2-----------------|
--L----------------|--2-----------------|--3-----------------|
-------------------|--------------------|--------------------|


  D                                                               
                       PM PM PM PM PM PM PM PM PM PM PM PM        
  H        H           S  S  S  S  S  S  S  S  S  S  S  S  Q      
-----------2--------|--------------------------------------------|
-----------3--------|--------------------------------------------|
--2--------2--------|--------------------------------------------|
--4-----------------|--------------------------------------------|
--5-----------------|-----------------------------0--0--0--2~----|
--------------------|--0--0--0--2--2--2--3--3--3-----------------|


  E                    C                    D                  
  H        H           H        H           H        H         
-----------0--------|-----------0--------|-----------2--------|
-----------5--------|-----------1--------|-----------3--------|
--4--------4--------|--0--------0--------|--2--------2--------|
--2-----------------|--2-----------------|--4-----------------|
--2-----------------|--3-----------------|--5-----------------|
--------------------|--------------------|--------------------|


                                               Outro Chorus           
                                               E                      
  PM PM PM PM PM PM PM PM PM PM PM PM                                 
  S  S  S  S  S  S  S  S  S  S  S  S  Q        H            H         
--------------------------------------------|---------------0--------|
--------------------------------------------|---------------5--------|
--------------------------------------------|--4------------4--------|
--------------------------------------------|--2---------------------|
-----------------------------0--0--0--2~----|--2---------------------|
--0--0--0--2--2--2--3--3--3-----------------|------------------------|


  C                    D                  
  H        H           H        H         
-----------0--------|-----------2--------|
-----------1--------|-----------3--------|
--0--------0--------|--2--------2--------|
--2-----------------|--4-----------------|
--3-----------------|--5-----------------|
--------------------|--------------------|


                                               E                  
  PM PM PM PM PM PM PM PM PM PM PM PM                             
  S  S  S  S  S  S  S  S  S  S  S  S  Q        H        H         
--------------------------------------------|-----------0--------|
--------------------------------------------|-----------5--------|
--------------------------------------------|--4--------4--------|
--------------------------------------------|--2-----------------|
-----------------------------0--0--0--2~----|--2-----------------|
--0--0--0--2--2--2--3--3--3-----------------|--------------------|


  C                    D                  
  H        H           H        H         
-----------0--------|-----------2--------|
-----------1--------|-----------3--------|
--0--------0--------|--2--------2--------|
--2-----------------|--4-----------------|
--3-----------------|--5-----------------|
--------------------|--------------------|


  Outro                                         
  PM    PM PM PM PM PM PM PM PM PM PM PM        
  S     S  S  S  S  S  S  S  S  S  S  S  Q      
-----------------------------------------------|
-----------------------------------------------|
-----------------------------------------------|
-----------------------------------------------|
--------------------------------0--0--0--2~----|
--0-----0--0--2--2--2--3--3--3-----------------|


  PM PM PM PM PM PM PM PM PM PM PM PM          PM  PM  PM             
  S  S  S  S  S  S  S  S  S  S  S  S  Q        E.  E.  E.  E.  Q      
--------------------------------------------|-----------------------||
--------------------------------------------|-----------------------||
--------------------------------------------|-----------------------||
--------------------------------------------|--2---2---2------------||
-----------------------------0--0--0--2~----|--2---2---2------------||
--0--0--0--2--2--2--3--3--3-----------------|--0---0---0------------||




Guitar #3:

Grahame Leslie


          Intro                                                     
     S    W                   W                   W                 
E||----|-------------------|-------------------|-------------------|
B||----|-------------------|-------------------|-------------------|
G||----|-------------------|-------------------|-------------------|
D||----|-------------------|-------------------|-------------------|
A||----|-------------------|-------------------|-------------------|
E||----|-------------------|-------------------|-------------------|


  W                   W                   W                   W                 
-------------------|-------------------|-------------------|-------------------|
-------------------|-------------------|-------------------|-------------------|
-------------------|-------------------|-------------------|-------------------|
-------------------|-------------------|-------------------|-------------------|
-------------------|-------------------|-------------------|-------------------|
-------------------|-------------------|-------------------|-------------------|


                      Riff A                                          
  W                   Q      Q     Q    Q       E.  E.  E  H          
-------------------|-------------------------|-----------------------|
-------------------|-------------------------|-----------------------|
-------------------|---------7b----7----5----|--4---5---7--5~--------|
-------------------|-------------------------|-----------------------|
-------------------|-------------------------|-----------------------|
-------------------|-------------------------|-----------------------|


                                         SH                                   
  E  E   Q     Q    Q       E.  E.  E    H            E   E  Q     Q    Q     
-------------------------|-------------------------|-------------------------|
-------------------------|-------------------------|-------------------------|
--L--L\--7b----7----5----|--4---5---7--<>5~--------|--L\-----7b----7----5----|
-------------------------|-------------------------|-------------------------|
-------------------------|-------------------------|-------------------------|
-------------------------|-------------------------|-------------------------|


                                                                 SH         
  E.  E.  E  H            E  E   Q     Q    Q       E.  E.  E    H          
-----------------------|-------------------------|-------------------------|
-----------------------|-------------------------|-------------------------|
--4---5---7--5~--------|--L--L\--7b----7----5----|--4---5---7--<>5~--------|
-----------------------|-------------------------|-------------------------|
-----------------------|-------------------------|-------------------------|
-----------------------|-------------------------|-------------------------|


  Verse Riff                                                                    
  Em                  C                   D                   Esus2             
  ^                   ^                   ^                   ^                 
  W                   W                   W                   W                 
--7----------------|--3----------------|--5----------------|--7----------------|
--8----------------|--5----------------|--7----------------|--7----------------|
--9----------------|--5----------------|--7----------------|--9----------------|
--9----------------|--5----------------|--7----------------|--9----------------|
--7----------------|--3----------------|--5----------------|--7----------------|
--0----------------|-------------------|-------------------|-------------------|


  Em                  C                   D                   Esus2             
  ^                   ^                   ^                   ^                 
  W                   W                   W                   W                 
--7----------------|--3----------------|--5----------------|--7----------------|
--8----------------|--5----------------|--7----------------|--7----------------|
--9----------------|--5----------------|--7----------------|--9----------------|
--9----------------|--5----------------|--7----------------|--9----------------|
--7----------------|--3----------------|--5----------------|--7----------------|
--0----------------|-------------------|-------------------|-------------------|


  Em                  C                   D                   Esus2             
  ^                   ^                   ^                   ^                 
  W                   W                   W                   W                 
--7----------------|--3----------------|--5----------------|--7----------------|
--8----------------|--5----------------|--7----------------|--7----------------|
--9----------------|--5----------------|--7----------------|--9----------------|
--9----------------|--5----------------|--7----------------|--9----------------|
--7----------------|--3----------------|--5----------------|--7----------------|
--0----------------|-------------------|-------------------|-------------------|


  Em                  C                   D                   Esus2             
  ^                   ^                   ^                   ^                 
  W                   W                   W                   W                 
--7----------------|--3----------------|--5----------------|--7----------------|
--8----------------|--5----------------|--7----------------|--7----------------|
--9----------------|--5----------------|--7----------------|--9----------------|
--9----------------|--5----------------|--7----------------|--9----------------|
--7----------------|--3----------------|--5----------------|--7----------------|
--0----------------|-------------------|-------------------|-------------------|


  Pre-Chorus                                                  Chorus            
  C                   D                                       Em                
  ^                   ^                                       ^                 
  W                   W                   W                   W                 
--3----------------|--5----------------|--L----------------|-------------------|
--5----------------|--7----------------|--L----------------|--8----------------|
--5----------------|--7----------------|--L----------------|--9----------------|
--5----------------|--7----------------|--L----------------|--9----------------|
--3----------------|--5----------------|--L----------------|--7----------------|
-------------------|-------------------|-------------------|--0----------------|


  C                   D                                          
  ^                   ^                   PM  PM  PM  PM  PM PM  
  W                   W                   E.  E.  E.  E.  E  E   
-------------------|-------------------|------------------------|
--5----------------|--7----------------|------------------------|
--5----------------|--7----------------|------------------------|
--5----------------|--7----------------|------------------------|
--3----------------|--5----------------|--------------0---------|
-------------------|-------------------|--0---2---3-------3--2--|


  Em                  C                   D                 
  ^                   ^                   ^                 
  W                   W                   W                 
-------------------|-------------------|-------------------|
--8----------------|--5----------------|--7----------------|
--9----------------|--5----------------|--7----------------|
--9----------------|--5----------------|--7----------------|
--7----------------|--3----------------|--5----------------|
--0----------------|-------------------|-------------------|


                           Riff A                                          
  PM  PM  PM  PM  PM PM                                                    
  E.  E.  E.  E.  E  E     Q      Q     Q    Q       E.  E.  E  H          
------------------------|-------------------------|-----------------------|
------------------------|-------------------------|-----------------------|
------------------------|---------7b----7----5----|--4---5---7--5~--------|
------------------------|-------------------------|-----------------------|
--------------0---------|-------------------------|-----------------------|
--0---2---3-------3--2--|-------------------------|-----------------------|


                                                      Verse Riff        
                                                      Em                
                                         SH           ^                 
  E  E   Q     Q    Q       E.  E.  E    H            W                 
-------------------------|-------------------------|--7----------------|
-------------------------|-------------------------|--8----------------|
--L--L\--7b----7----5----|--4---5---7--<>5~--------|--9----------------|
-------------------------|-------------------------|--9----------------|
-------------------------|-------------------------|--7----------------|
-------------------------|-------------------------|--0----------------|


  C                   D                   Esus2               Em                
  ^                   ^                   ^                   ^                 
  W                   W                   W                   W                 
--3----------------|--5----------------|--7----------------|--7----------------|
--5----------------|--7----------------|--7----------------|--8----------------|
--5----------------|--7----------------|--9----------------|--9----------------|
--5----------------|--7----------------|--9----------------|--9----------------|
--3----------------|--5----------------|--7----------------|--7----------------|
-------------------|-------------------|-------------------|--0----------------|


  C                   D                   Esus2               Em                
  ^                   ^                   ^                   ^                 
  W                   W                   W                   W                 
--3----------------|--5----------------|--7----------------|--7----------------|
--5----------------|--7----------------|--7----------------|--8----------------|
--5----------------|--7----------------|--9----------------|--9----------------|
--5----------------|--7----------------|--9----------------|--9----------------|
--3----------------|--5----------------|--7----------------|--7----------------|
-------------------|-------------------|-------------------|--0----------------|


  C                   D                   Esus2               Em                
  ^                   ^                   ^                   ^                 
  W                   W                   W                   W                 
--3----------------|--5----------------|--7----------------|--7----------------|
--5----------------|--7----------------|--7----------------|--8----------------|
--5----------------|--7----------------|--9----------------|--9----------------|
--5----------------|--7----------------|--9----------------|--9----------------|
--3----------------|--5----------------|--7----------------|--7----------------|
-------------------|-------------------|-------------------|--0----------------|


                                                              Pre-Chorus        
  C                   D                   Esus2               C                 
  ^                   ^                   ^                   ^                 
  W                   W                   W                   W                 
--3----------------|--5----------------|--7----------------|--3----------------|
--5----------------|--7----------------|--7----------------|--5----------------|
--5----------------|--7----------------|--9----------------|--5----------------|
--5----------------|--7----------------|--9----------------|--5----------------|
--3----------------|--5----------------|--7----------------|--3----------------|
-------------------|-------------------|-------------------|-------------------|


                                          Chorus                                
  D                                       Em                  C                 
  ^                                       ^                   ^                 
  W                   W                   W                   W                 
--5----------------|--L----------------|-------------------|-------------------|
--7----------------|--L----------------|--8----------------|--5----------------|
--7----------------|--L----------------|--9----------------|--5----------------|
--7----------------|--L----------------|--9----------------|--5----------------|
--5----------------|--L----------------|--7----------------|--3----------------|
-------------------|-------------------|--0----------------|-------------------|


  D                                            Em                
  ^                   PM  PM  PM  PM  PM PM    ^                 
  W                   E.  E.  E.  E.  E  E     W                 
-------------------|------------------------|-------------------|
--7----------------|------------------------|--8----------------|
--7----------------|------------------------|--9----------------|
--7----------------|------------------------|--9----------------|
--5----------------|--------------0---------|--7----------------|
-------------------|--0---2---3-------3--2--|--0----------------|


  C                   D                                          
  ^                   ^                   PM  PM  PM  PM  PM PM  
  W                   W                   E.  E.  E.  E.  E  E   
-------------------|-------------------|------------------------|
--5----------------|--7----------------|------------------------|
--5----------------|--7----------------|------------------------|
--5----------------|--7----------------|------------------------|
--3----------------|--5----------------|--------------0---------|
-------------------|-------------------|--0---2---3-------3--2--|


  Bridge                                                         
  C                   D                                          
  ^                   ^                                          
  W                   W                   E.  E.  E.  E.  Q      
-------------------|-------------------|------------------------|
--5----------------|--7----------------|------------------------|
--5----------------|--7----------------|------------------------|
--5----------------|--7----------------|------------------------|
--3----------------|--5----------------|--------------0---2~----|
-------------------|-------------------|--0---2---3-------------|


                           C                   D                 
                           ^                   ^                 
  E.  E.  E.  E.  Q        W                   W                 
------------------------|-------------------|-------------------|
------------------------|--5----------------|--7----------------|
------------------------|--5----------------|--7----------------|
------------------------|--5----------------|--7----------------|
--------------0---2~----|--3----------------|--5----------------|
--0---2---3-------------|-------------------|-------------------|


                                                    Solo David Hawkins  
                                                    C                   
  E.  E.  E.  E.  Q        E.  E.  E.  E.  Q        W                   
------------------------|------------------------|---------------------|
------------------------|------------------------|--5------------------|
------------------------|------------------------|--5------------------|
------------------------|------------------------|--5------------------|
--------------0---2~----|--------------0---2~----|--3------------------|
--0---2---3-------------|--0---2---3-------------|---------------------|


  D                   Em                                      C                 
  W                   W                   W                   W                 
-------------------|-------------------|-------------------|-------------------|
--7----------------|--8----------------|--L----------------|--5----------------|
--7----------------|--9----------------|--L----------------|--5----------------|
--7----------------|--9----------------|--L----------------|--5----------------|
--5----------------|--7----------------|--L----------------|--3----------------|
-------------------|-------------------|-------------------|-------------------|


  D                                                     
                      PM PM PM PM PM PM PM PM PM PM PM  
  W                   S  E  S  E  S  E  S  E  S  E  S   
-------------------|-----------------------------------|
--7----------------|-----------------------------------|
--7----------------|-----------------------------------|
--7----------------|-----------------------------------|
--5----------------|-----7-----7-----7-----7-----7-----|
-------------------|--0-----0-----0-----0-----0-----0--|


                                Pre-Chorus                            
                                C                   D                 
                                ^                   ^                 
  E.   E.   Q     E   E   E     W                   W                 
-----------------------------|--3----------------|--5----------------|
-----------------------------|--5----------------|--7----------------|
-----------------------------|--5----------------|--7----------------|
--9---11---12-----L---L\-----|--5----------------|--7----------------|
--7----9---10-----L---L\-----|--3----------------|--5----------------|
-----------------------------|-------------------|-------------------|


                      Chorus                                                    
                      Em                  C                   D                 
                      ^                   ^                   ^                 
  W                   W                   W                   W                 
--L----------------|-------------------|-------------------|-------------------|
--L----------------|--8----------------|--5----------------|--7----------------|
--L----------------|--9----------------|--5----------------|--7----------------|
--L----------------|--9----------------|--5----------------|--7----------------|
--L----------------|--7----------------|--3----------------|--5----------------|
-------------------|--0----------------|-------------------|-------------------|


                           Em                  C                 
  PM  PM  PM  PM           ^                   ^                 
  E.  E.  E.  E.  Q        W                   W                 
------------------------|-------------------|-------------------|
------------------------|--8----------------|--5----------------|
------------------------|--9----------------|--5----------------|
------------------------|--9----------------|--5----------------|
--------------0---2~----|--7----------------|--3----------------|
--0---2---3-------------|--0----------------|-------------------|


                                               Outro Chorus      
  D                                            Em                
  ^                   PM  PM  PM  PM           ^                 
  W                   E.  E.  E.  E.  Q        W                 
-------------------|------------------------|-------------------|
--7----------------|------------------------|--8----------------|
--7----------------|------------------------|--9----------------|
--7----------------|------------------------|--9----------------|
--5----------------|--------------0---2~----|--7----------------|
-------------------|--0---2---3-------------|--0----------------|


  C                   D                                          
  ^                   ^                   PM  PM  PM  PM         
  W                   W                   E.  E.  E.  E.  Q      
-------------------|-------------------|------------------------|
--5----------------|--7----------------|------------------------|
--5----------------|--7----------------|------------------------|
--5----------------|--7----------------|------------------------|
--3----------------|--5----------------|--------------0---2~----|
-------------------|-------------------|--0---2---3-------------|


  Em                  C                   D                 
  ^                   ^                   ^                 
  W                   W                   W                 
-------------------|-------------------|-------------------|
--8----------------|--5----------------|--7----------------|
--9----------------|--5----------------|--7----------------|
--9----------------|--5----------------|--7----------------|
--7----------------|--3----------------|--5----------------|
--0----------------|-------------------|-------------------|


  Outro                                                                 
  PM    PM  PM  PM           PM PM PM PM PM PM PM PM PM PM PM PM        
  E.    E.  E.  E.  Q        S  S  S  S  S  S  S  S  S  S  S  S  Q      
--------------------------|--------------------------------------------|
--------------------------|--------------------------------------------|
--------------------------|--------------------------------------------|
--------------------------|--------------------------------------------|
----------------0---2~----|-----------------------------0--0--0--2~----|
--0-----2---3-------------|--0--0--0--2--2--2--3--3--3-----------------|


  PM  PM  PM             
  E.  E.  E.  E.  Q      
-----------------------||
-----------------------||
-----------------------||
-----------------------||
--2---2---2------------||
--0---0---0------------||




Voice Melody:

Richard Taylor


          Intro                                                     
     S    W                   W                   W                 
E||----|-------------------|-------------------|-------------------|
B||----|-------------------|-------------------|-------------------|
G||----|-------------------|-------------------|-------------------|
D||----|-------------------|-------------------|-------------------|
A||----|-------------------|-------------------|-------------------|
E||----|-------------------|-------------------|-------------------|


  W                   W                   W                   W                 
-------------------|-------------------|-------------------|-------------------|
-------------------|-------------------|-------------------|-------------------|
-------------------|-------------------|-------------------|-------------------|
-------------------|-------------------|-------------------|-------------------|
-------------------|-------------------|-------------------|-------------------|
-------------------|-------------------|-------------------|-------------------|


                      Riff A                                                    
  W                   W                   W                   W                 
-------------------|-------------------|-------------------|-------------------|
-------------------|-------------------|-------------------|-------------------|
-------------------|-------------------|-------------------|-------------------|
-------------------|-------------------|-------------------|-------------------|
-------------------|-------------------|-------------------|-------------------|
-------------------|-------------------|-------------------|-------------------|


  W                   W                   W                   W                 
-------------------|-------------------|-------------------|-------------------|
-------------------|-------------------|-------------------|-------------------|
-------------------|-------------------|-------------------|-------------------|
-------------------|-------------------|-------------------|-------------------|
-------------------|-------------------|-------------------|-------------------|
-------------------|-------------------|-------------------|-------------------|


                      Verse Riff                          
                                 Pro  mises  MadeOut  of  
  W                   Q          E    S E.   E   E    E   
-------------------|--------------------7----------------|
-------------------|-------------8---10-----10---8---10--|
-------------------|--------------------4----------------|
-------------------|-------------5----7------7---5----7--|
-------------------|-------------------------------------|
-------------------|-------------------------------------|


  Fright      Hands    Held   Tight         all  is   
  H        E  E     S  E.     H        Q    S    E.   
---------------------------|-------------------------|
--------------8-----L-10---|--7-------------8---10---|
--9------------------------|-------------------------|
--------------5-----L--7---|--4-------------5----7---|
--7------------------------|-------------------------|
---------------------------|-------------------------|


  Calm To night                     I Came  HereLoo  kingFor  a   
  E.   S  S     H        E.     E.  S E     S.  S.   E.  E    E   
-----------------------------|------------------7----------------|
-------7--8-----L------------|------7-8----10-------10---8---10--|
--9--------------------------|------------------4----------------|
-------4--5-----L------------|------4-5-----7--------7---5----7--|
--7--------------------------|-----------------------------------|
-----------------------------|-----------------------------------|


  Friend      To Start  A    gain        and   it's Good  
  H        E  E  E.     S    H        E  T   T E    E.    
--------------------------|------------------------------|
-----------------8-----10-|--7-----------8---L-8----7----|
--9-----------9-----------|------------------------------|
-----------------5------7-|--4-----------5---L-5----4----|
--7-----------7-----------|------------------------------|
--------------------------|------------------------------|


  bye My  Love                And E   very    thing Went Wrong To  
  E.  E.  H        E     E.   S   E   T    T  E.    E    E     E   
----------------------|----------10--12----L-14----12---10----12--|
------7---8-----------|------12-----------------------------------|
--9-------------------|-----------7---9----L-11-----9----7-----9--|
------4---5-----------|-------9-----------------------------------|
--7-------------------|-------------------------------------------|
----------------------|-------------------------------------------|


   day           I     Close My     Eyes        But You  Won    't      
   H        E.   T  T  E     E      Q.     Q    S   S    X   X  T  E.   
--14------------10--L-10----12--|--------------------------------------|
--------------------------------|--12---------------8---10---L-10--L---|
--11-------------7--L--7-----9--|---------------9----------------------|
--------------------------------|---9---------------5----7---L--7--L---|
--------------------------------|---------------7----------------------|
--------------------------------|--------------------------------------|


  Go  A   way                 And We  Were       Raised To  Do  What's 
  E.  E.  Q.     Q       E.   S   E   T    X  X  E.     E   E   E      
--8---7---7-----------|----------10--12----L--L-14-----12--10--12-----|
----------------------|------12---------------------------------------|
--5---4---4-----------|-----------7---9----L--L-11------9---7---9-----|
----------------------|-------9---------------------------------------|
----------------------|-----------------------------------------------|
----------------------|-----------------------------------------------|


   Right        And    Not  Re     act          To  Wha te ver's        
   Q.     Q     T   T  E.   E      Q.     Q     E   T   T  T     T  E   
--14------------------10---12--|---------------12--14--14-14-----L--L--|
---------------12---L----------|--12-----------------------------------|
--11-------------------7----9--|----------------9--11--11-11-----L--L--|
----------------9---L----------|---9-----------------------------------|
-------------------------------|---------------------------------------|
-------------------------------|---------------------------------------|


                                      Pre-Chorus                
   Thrown at us        And    These   Games           That  We  
   E.     S  Q.     E  S   S  E       H          Q    E     E   
--15-----14-12---------------------|---------------------------|
-----------------------8---L-10----|------------------8----10--|
--12-----11--9---------------------|--9------------------------|
-----------------------5---L--7----|------------------5-----7--|
-----------------------------------|--7------------------------|
-----------------------------------|---------------------------|


  Pla    aa ay...                                To    
  Q.     S  S     E  Q.        Q    H        E   S  S  
----------------------------|-------------------12--L-|
--7-------------------------|-------------------------|
---------9--7-----L--L------|--L-----------------9--L-|
--4-------------------------|-------------------------|
---------7--5-----L--L------|--L----------------------|
----------------------------|-------------------------|


   Chorus                                                          
   ge     ther We  Try  And  To     ge   ther We  Cry      It's    
   E.     E.   E   E.   E.   E      E.   E.   E   Q    E   S    S  
--12-----14---15--17---15---14--|--15---14---10--12-------14----L-|
--------------------------------|---------------------------------|
---9-----11---12--14---12---11--|--12---11----7---9-------11----L-|
--------------------------------|---------------------------------|
--------------------------------|---------------------------------|
--------------------------------|---------------------------------|


   Us           A  gainst The    World            The    
   Q.     Q     S  E.     E      H        Q.      S   S  
--14-----------14-15-----14--|--12---------------12---L-|
-----------------------------|--------------------------|
--11-----------11-12-----11--|---9----------------9---L-|
-----------------------------|--------------------------|
-----------------------------|--------------------------|
-----------------------------|--------------------------|


   Hurt That They Give 'Cause We're    Li   censed To  Live     It's    
   E.   E.   E    E.   E.     E        E.   E.     E   Q    E   S    S  
--12---14---15---17---15-----14----|--15---14-----10--12-------14----L-|
-----------------------------------|-----------------------------------|
---9---11---12---14---12-----11----|--12---11------7---9-------11----L-|
-----------------------------------|-----------------------------------|
-----------------------------------|-----------------------------------|
-----------------------------------|-----------------------------------|


                                                      Riff A            
   Us           A  gainst The    World                                  
   Q.     Q     S  E.     E      H        H           W                 
--14-----------14-15-----14--|--12-----------------|-------------------|
-----------------------------|---------------------|-------------------|
--11-----------11-12-----11--|---9-----------------|-------------------|
-----------------------------|---------------------|-------------------|
-----------------------------|---------------------|-------------------|
-----------------------------|---------------------|-------------------|


  W                   W                   W                 
-------------------|-------------------|-------------------|
-------------------|-------------------|-------------------|
-------------------|-------------------|-------------------|
-------------------|-------------------|-------------------|
-------------------|-------------------|-------------------|
-------------------|-------------------|-------------------|


  Verse Riff                                                          
             A   Gun  shotE   choin  The   Night       No End  in     
  E          T T E.   E   E   E  E   E     H        E  E  S.   T  E   
--------------------------7-------------|----------------------------|
-------------8-L-8---10------10--8--10--|-----------------8---10--L--|
--------------------------4-------------|--9-----------9-------------|
-------------5-L-5----7-------7--5---7--|-----------------5----7--L--|
----------------------------------------|--7-----------7-------------|
----------------------------------------|----------------------------|


  Sight       I'm in  The   Hands of  Luck         
  H        E  E   E   E     E.    E.  H        E   
-------------------------|------------------------|
--7-----------7---8--10--|--------7---8-----------|
-------------------------|--9---------------------|
--4-----------4---5---7--|--------4---5-----------|
-------------------------|--7---------------------|
-------------------------|------------------------|


       Came    HereFor  Some   Peace  of    Mind        Would   You     Be  
  Q    S    S  E   E    S    S E      E     H        E  S     T T   E   E   
-------7----L------7---------------------|---------------------------------|
--------------10-------10----L-8-----10--|----------------------8---L--10--|
-------4----L------4---------------------|--9-----------9-----L------------|
---------------7--------7----L-5------7--|----------------------5---L---7--|
-----------------------------------------|--7-----------7-----L------------|
-----------------------------------------|---------------------------------|


  Kind        And   Help     Me     on     My   Way                
  H        E  S   T T    E   E      E   T  E.   T   E   Q    Q     
--------------------------------|---------------------------------|
--7-----------7---L-8----L--10--|--13---L-12---12---L---L---------|
--------------------------------|---------------------------------|
--4-----------4---L-5----L---7--|--10---L--9----9---L---L---------|
--------------------------------|---------------------------------|
--------------------------------|---------------------------------|


       But E   very    thing Went Wrong To     day          I     Close My    
  E.   S   E   T    T  E.    E    E     E      H        E   T  T  E.    S  S  
----------10--12----L-14----12---10----12--|--14-----------10--L-10----12--L-|
------12-----------------------------------|---------------------------------|
-----------7---9----L-11-----9----7-----9--|--11------------7--L--7-----9--L-|
-------9-----------------------------------|---------------------------------|
-------------------------------------------|---------------------------------|
-------------------------------------------|---------------------------------|


   Eyes         But E  ven it    Won't    Go   A    way          
   Q.     Q     S   S  T   X  X  E.       E.   E.   H        E   
---------------12--14-14--14--L-14----|--15---14---12-----------|
--12----------------------------------|-------------------------|
----------------9--11-11--11--L-11----|--12---11----9-----------|
---9----------------------------------|-------------------------|
--------------------------------------|-------------------------|
--------------------------------------|-------------------------|


       And We  Were       Raised To  Do  What's    Right        And    Not  Re  
  E.   S   E   T    X  X  E.     E   E   E         Q.     Q     T   T  E.   E   
----------10--12----L--L-14-----12--10--12-----|--14------------------10---12--|
------12---------------------------------------|---------------12---L----------|
-----------7---9----L--L-11------9---7---9-----|--11-------------------7----9--|
-------9---------------------------------------|----------------9---L----------|
-----------------------------------------------|-------------------------------|
-----------------------------------------------|-------------------------------|


   act          To  Wha te ver's           Thrown at us        And    These 
   Q.     Q     E   T   T  T     T  E      E.     S  Q.     E  S   S  E     
---------------12--14--14-14-----L--L--|--15-----14-12---------------------|
--12-----------------------------------|-----------------------8---L-10----|
----------------9--11--11-11-----L--L--|--12-----11--9---------------------|
---9-----------------------------------|-----------------------5---L--7----|
---------------------------------------|-----------------------------------|
---------------------------------------|-----------------------------------|


  Pre-Chorus                                             
  Wars            That  We    R/Wa   aa ge...            
  H          Q    E     E     Q.     S  S     E  Q.      
---------------------------|----------------------------|
------------------8----10--|--7-------------------------|
--9------------------------|---------9--7-----L--L------|
------------------5-----7--|--4-------------------------|
--7------------------------|---------7--5-----L--L------|
---------------------------|----------------------------|


                             Chorus                        
                    To       ge     ther We  Try  And  To  
  Q    H        E   S  S     E.     E.   E   E.   E.   E   
-------------------12--L-|--12-----14---15--17---15---14--|
-------------------------|--------------------------------|
--L-----------------9--L-|---9-----11---12--14---12---11--|
-------------------------|--------------------------------|
--L----------------------|--------------------------------|
-------------------------|--------------------------------|


   ge   ther We  Cry      It's       Us           A  gainst The 
   E.   E.   E   Q    E   S    S     Q.     Q     S  E.     E   
--15---14---10--12-------14----L-|--14-----------14-15-----14--|
---------------------------------|-----------------------------|
--12---11----7---9-------11----L-|--11-----------11-12-----11--|
---------------------------------|-----------------------------|
---------------------------------|-----------------------------|
---------------------------------|-----------------------------|


   World            The       Hurt That They    Give But  We're 
   H        Q.      S   S     E.   E.   S    S  E.   E.   E     
--12---------------12---L-|--12---14---15----L-17---15---14----|
--------------------------|------------------------------------|
---9----------------9---L-|---9---11---12----L-14---12---11----|
--------------------------|------------------------------------|
--------------------------|------------------------------------|
--------------------------|------------------------------------|


   Li   censed To  Live     It's       Us           A  gainst The 
   E.   E.     E   Q    E   S    S     Q.     Q     S  E.     E   
--15---14-----10--12-------14----L-|--14-----------14-15-----14--|
-----------------------------------|-----------------------------|
--12---11------7---9-------11----L-|--11-----------11-12-----11--|
-----------------------------------|-----------------------------|
-----------------------------------|-----------------------------|
-----------------------------------|-----------------------------|


                         Bridge                      
   World                 Sis    ter  And Bro ther... 
   H        H            E.     E.   E   E   Q.      
--12-----------------|--17-----15---14--15--14------|
---------------------|------------------------------|
---9-----------------|--14-----12---11--12--11------|
---------------------|------------------------------|
---------------------|------------------------------|
---------------------|------------------------------|


   Fa   ther And Mo  ther                                              
   E.   E.   E   E   Q.         H        H           W                 
--17---15---14--15--14------|---L-----------------|-------------------|
----------------------------|---------------------|-------------------|
--14---12---11--12--11------|---L-----------------|-------------------|
----------------------------|---------------------|-------------------|
----------------------------|---------------------|-------------------|
----------------------------|---------------------|-------------------|


   Some thing Has Got  To   Give    Can't Go   Much Fur    ther          
   E.   E.    E   E.   E.   E       E.    E.   E    E   T  S    T  Q     
--17---15----14--15---14---15---|--19----17---15---14---L-15----L--L----|
--------------------------------|---------------------------------------|
--14---12----11--12---11---12---|--16----14---12---11---L-12----L--L----|
--------------------------------|---------------------------------------|
--------------------------------|---------------------------------------|
--------------------------------|---------------------------------------|


                                            Solo David Hawkins  
   H        H           W                   W                   
---L-----------------|-------------------|---------------------|
---------------------|-------------------|---------------------|
---L-----------------|-------------------|---------------------|
---------------------|-------------------|---------------------|
---------------------|-------------------|---------------------|
---------------------|-------------------|---------------------|


  W                   W                   W                   W                 
-------------------|-------------------|-------------------|-------------------|
-------------------|-------------------|-------------------|-------------------|
-------------------|-------------------|-------------------|-------------------|
-------------------|-------------------|-------------------|-------------------|
-------------------|-------------------|-------------------|-------------------|
-------------------|-------------------|-------------------|-------------------|


                                                       And    These 
  W                   W                   H.           S   S  E     
-------------------|-------------------|---------------------------|
-------------------|-------------------|---------------8---L-10----|
-------------------|-------------------|---------------------------|
-------------------|-------------------|---------------5---L--7----|
-------------------|-------------------|---------------------------|
-------------------|-------------------|---------------------------|


      Pre-Chorus                                          
      Games...       We        Pla    aa ay...            
      H        Q     E   E     Q.     S  S     E  Q.      
----------------------------|----------------------------|
--10g12-------------10---L--|--7-------------------------|
----------------------------|---------9--7-----L--L------|
----7g9--------------7---L--|--4-------------------------|
----------------------------|---------7--5-----L--L------|
----------------------------|----------------------------|


                             Chorus                        
                    To       ge     ther We  Try  And  To  
  Q    H        E   S  S     E.     E.   E   E.   E.   E   
-------------------12--L-|--12-----14---15--17---15---14--|
-------------------------|--------------------------------|
--L-----------------9--L-|---9-----11---12--14---12---11--|
-------------------------|--------------------------------|
--L----------------------|--------------------------------|
-------------------------|--------------------------------|


   ge   ther We  Cry      It's       Us           A  gainst The 
   E.   E.   E   Q    E   S    S     Q.     Q     S  E.     E   
--15---14---10--12-------14----L-|--14-----------14-15-----14--|
---------------------------------|-----------------------------|
--12---11----7---9-------11----L-|--11-----------11-12-----11--|
---------------------------------|-----------------------------|
---------------------------------|-----------------------------|
---------------------------------|-----------------------------|


   World            The       Hurt That They    Give But  We're 
   H        Q.      S   S     E.   E.   S    S  E.   E.   E     
--12---------------12---L-|--12---14---15----L-17---15---14----|
--------------------------|------------------------------------|
---9----------------9---L-|---9---11---12----L-14---12---11----|
--------------------------|------------------------------------|
--------------------------|------------------------------------|
--------------------------|------------------------------------|


   Li   censed To  Live     It's       Us           A  gainst The 
   E.   E.     E   Q    E   S    S     Q.     Q     S  E.     E   
--15---14-----10--12-------14----L-|--14-----------14-15-----14--|
-----------------------------------|-----------------------------|
--12---11------7---9-------11----L-|--11-----------11-12-----11--|
-----------------------------------|-----------------------------|
-----------------------------------|-----------------------------|
-----------------------------------|-----------------------------|


                             Outro Chorus                        
   World            To       ge           ther We  Try  And  To  
   H        Q.      S  S     E.           E.   E   E.   E.   E   
--12---------------14--L-|--15-----------14---12--14---12---15--|
-------------------------|--------------------------------------|
---9---------------11--L-|--12-----------11----9--11----9---12--|
-------------------------|--------------------------------------|
-------------------------|--------------------------------------|
-------------------------|--------------------------------------|


   ge   ther We  Cry      It's       Us           A  gainst The 
   E.   E.   E   Q    E   S    S     Q.     Q     S  E.     E   
--19---17---15--14-------14----L-|--14-----------14-15-----14--|
---------------------------------|-----------------------------|
--16---14---12--11-------11----L-|--11-----------11-12-----11--|
---------------------------------|-----------------------------|
---------------------------------|-----------------------------|
---------------------------------|-----------------------------|


   World            The       Hurt That They    Give But  We're 
   H        Q.      S   S     E.   E.   S    S  E.   E.   E     
--12---------------14---L-|--15---14---12----L-14---12---15----|
--------------------------|------------------------------------|
---9---------------11---L-|--12---11----9----L-11----9---12----|
--------------------------|------------------------------------|
--------------------------|------------------------------------|
--------------------------|------------------------------------|


   Li   censed To  Live     It's       Us           A  gainst The 
   E.   E.     E   Q    E   S    S     Q.     Q     S  E.     E   
--19---17-----15--14-------14----L-|--14-----------14-15-----14--|
-----------------------------------|-----------------------------|
--16---14-----12--11-------11----L-|--11-----------11-12-----11--|
-----------------------------------|-----------------------------|
-----------------------------------|-----------------------------|
-----------------------------------|-----------------------------|


   Outro                                                           
   World                                                           
   H         E   E.  E.     W                   W                  
--19---------L---L-------|-------------------|-------------------||
-------------------------|-------------------|-------------------||
--16---------L---L-------|-------------------|-------------------||
-------------------------|-------------------|-------------------||
-------------------------|-------------------|-------------------||
-------------------------|-------------------|-------------------||




Keyboard #1:

David Hawkins


          Intro                                                     
     S    W                   W                   W                 
E||----|-------------------|-------------------|-------------------|
B||----|-------------------|-------------------|-------------------|
G||----|-------------------|-------------------|-------------------|
D||----|-------------------|-------------------|-------------------|
A||----|-------------------|-------------------|-------------------|
E||----|-------------------|-------------------|-------------------|


  W                   E  E  E  E  E  E  E  E     E  E  E  E  E  E  E  E   
-------------------|--------------------------|--------------------------|
-------------------|--7--------7--------7-----|--7--------7--------7-----|
-------------------|-----9--------9--------9--|-----9--------9--------9--|
-------------------|--------9--------9--------|--------9--------9--------|
-------------------|--------------------------|--------------------------|
-------------------|--------------------------|--------------------------|


                                                        Riff A            
  E  E  E  E  E  E  E  E     E  E  E  E  E  E  E  E     W                 
--------------------------|--------------------------|-------------------|
--7--------7--------7-----|--7--------7--------7-----|-------------------|
-----9--------9--------9--|-----9--------9--------9--|-------------------|
--------9--------9--------|--------9--------9--------|-------------------|
--------------------------|--------------------------|-------------------|
--------------------------|--------------------------|-------------------|


  W                   W                   W                   W                 
-------------------|-------------------|-------------------|-------------------|
-------------------|-------------------|-------------------|-------------------|
-------------------|-------------------|-------------------|-------------------|
-------------------|-------------------|-------------------|-------------------|
-------------------|-------------------|-------------------|-------------------|
-------------------|-------------------|-------------------|-------------------|


                                                              Verse Riff        
  W                   W                   W                   W                 
-------------------|-------------------|-------------------|-------------------|
-------------------|-------------------|-------------------|-------------------|
-------------------|-------------------|-------------------|-------------------|
-------------------|-------------------|-------------------|-------------------|
-------------------|-------------------|-------------------|-------------------|
-------------------|-------------------|-------------------|-------------------|


  W                   W                   W                   W                 
-------------------|-------------------|-------------------|-------------------|
-------------------|-------------------|-------------------|-------------------|
-------------------|-------------------|-------------------|-------------------|
-------------------|-------------------|-------------------|-------------------|
-------------------|-------------------|-------------------|-------------------|
-------------------|-------------------|-------------------|-------------------|


  W                   W                   W                 
-------------------|-------------------|-------------------|
-------------------|-------------------|-------------------|
-------------------|-------------------|-------------------|
-------------------|-------------------|-------------------|
-------------------|-------------------|-------------------|
-------------------|-------------------|-------------------|


  E  E  E  E  E  E  E  E     E  E  E  E  E  E  E  E   
--------------------------|--------------------------|
--7--------7--------7-----|--7--------7--------7-----|
-----9--------9--------9--|-----9--------9--------9--|
--------9--------9--------|--------9--------9--------|
--------------------------|--------------------------|
--------------------------|--------------------------|


  E  E  E  E  E  E  E  E     E  E  E  E  E  E  E  E   
--------------------------|--------------------------|
--7--------7--------7-----|--7--------7--------7-----|
-----9--------9--------9--|-----9--------9--------9--|
--------9--------9--------|--------9--------9--------|
--------------------------|--------------------------|
--------------------------|--------------------------|


  E  E  E  E  E  E  E  E     E  E  E  E  E  E  E  E   
--------------------------|--------------------------|
--7--------7--------7-----|--7--------7--------7-----|
-----9--------9--------9--|-----9--------9--------9--|
--------9--------9--------|--------9--------9--------|
--------------------------|--------------------------|
--------------------------|--------------------------|


                                                         Pre-Chorus        
  E  E  E  E  E  E  E  E     E  E  E  E  E  E  E  E      W                 
--------------------------|--------------------------|--12----------------|
--7--------7--------7-----|--7--------7--------7-----|--------------------|
-----9--------9--------9--|-----9--------9--------9--|---9----------------|
--------9--------9--------|--------9--------9--------|--------------------|
--------------------------|--------------------------|--------------------|
--------------------------|--------------------------|--------------------|


                                            Chorus            
   W                    W                   W                 
--10----------------|---L----------------|-------------------|
--------------------|--------------------|-------------------|
---7----------------|---L----------------|-------------------|
--------------------|--------------------|-------------------|
--------------------|--------------------|-------------------|
--------------------|--------------------|-------------------|


  W                   W                   W                   W                 
-------------------|-------------------|-------------------|-------------------|
-------------------|-------------------|-------------------|-------------------|
-------------------|-------------------|-------------------|-------------------|
-------------------|-------------------|-------------------|-------------------|
-------------------|-------------------|-------------------|-------------------|
-------------------|-------------------|-------------------|-------------------|


                                                              Riff A            
  W                   W                   W                   W                 
-------------------|-------------------|-------------------|-------------------|
-------------------|-------------------|-------------------|-------------------|
-------------------|-------------------|-------------------|-------------------|
-------------------|-------------------|-------------------|-------------------|
-------------------|-------------------|-------------------|-------------------|
-------------------|-------------------|-------------------|-------------------|


                                                              Verse Riff        
  W                   W                   W                   W                 
-------------------|-------------------|-------------------|-------------------|
-------------------|-------------------|-------------------|-------------------|
-------------------|-------------------|-------------------|-------------------|
-------------------|-------------------|-------------------|-------------------|
-------------------|-------------------|-------------------|-------------------|
-------------------|-------------------|-------------------|-------------------|


  W                   W                   W                   W                 
-------------------|-------------------|-------------------|-------------------|
-------------------|-------------------|-------------------|-------------------|
-------------------|-------------------|-------------------|-------------------|
-------------------|-------------------|-------------------|-------------------|
-------------------|-------------------|-------------------|-------------------|
-------------------|-------------------|-------------------|-------------------|


  W                   W                   W                 
-------------------|-------------------|-------------------|
-------------------|-------------------|-------------------|
-------------------|-------------------|-------------------|
-------------------|-------------------|-------------------|
-------------------|-------------------|-------------------|
-------------------|-------------------|-------------------|


  E  E  E  E  E  E  E  E     E  E  E  E  E  E  E  E   
--------------------------|--------------------------|
--7--------7--------7-----|--7--------7--------7-----|
-----9--------9--------9--|-----9--------9--------9--|
--------9--------9--------|--------9--------9--------|
--------------------------|--------------------------|
--------------------------|--------------------------|


  E  E  E  E  E  E  E  E     E  E  E  E  E  E  E  E   
--------------------------|--------------------------|
--7--------7--------7-----|--7--------7--------7-----|
-----9--------9--------9--|-----9--------9--------9--|
--------9--------9--------|--------9--------9--------|
--------------------------|--------------------------|
--------------------------|--------------------------|


  E  E  E  E  E  E  E  E     E  E  E  E  E  E  E  E   
--------------------------|--------------------------|
--7--------7--------7-----|--7--------7--------7-----|
-----9--------9--------9--|-----9--------9--------9--|
--------9--------9--------|--------9--------9--------|
--------------------------|--------------------------|
--------------------------|--------------------------|


                                                         Pre-Chorus        
  E  E  E  E  E  E  E  E     E  E  E  E  E  E  E  E      W                 
--------------------------|--------------------------|--12----------------|
--7--------7--------7-----|--7--------7--------7-----|--------------------|
-----9--------9--------9--|-----9--------9--------9--|---9----------------|
--------9--------9--------|--------9--------9--------|--------------------|
--------------------------|--------------------------|--------------------|
--------------------------|--------------------------|--------------------|


                                            Chorus            
   W                    W                   W                 
--10----------------|---L----------------|-------------------|
--------------------|--------------------|-------------------|
---7----------------|---L----------------|-------------------|
--------------------|--------------------|-------------------|
--------------------|--------------------|-------------------|
--------------------|--------------------|-------------------|


  W                   W                   W                   W                 
-------------------|-------------------|-------------------|-------------------|
-------------------|-------------------|-------------------|-------------------|
-------------------|-------------------|-------------------|-------------------|
-------------------|-------------------|-------------------|-------------------|
-------------------|-------------------|-------------------|-------------------|
-------------------|-------------------|-------------------|-------------------|


                                                              Bridge            
  W                   W                   W                   W                 
-------------------|-------------------|-------------------|-------------------|
-------------------|-------------------|-------------------|-------------------|
-------------------|-------------------|-------------------|-------------------|
-------------------|-------------------|-------------------|-------------------|
-------------------|-------------------|-------------------|-------------------|
-------------------|-------------------|-------------------|-------------------|


  W                   W                   W                   W                 
-------------------|-------------------|-------------------|-------------------|
-------------------|-------------------|-------------------|-------------------|
-------------------|-------------------|-------------------|-------------------|
-------------------|-------------------|-------------------|-------------------|
-------------------|-------------------|-------------------|-------------------|
-------------------|-------------------|-------------------|-------------------|


  W                   W                   W                 
-------------------|-------------------|-------------------|
-------------------|-------------------|-------------------|
-------------------|-------------------|-------------------|
-------------------|-------------------|-------------------|
-------------------|-------------------|-------------------|
-------------------|-------------------|-------------------|


  Solo David Hawkins                                          
  W                     W                   W                 
---------------------|-------------------|-------------------|
---------------------|-------------------|-------------------|
---------------------|-------------------|-------------------|
---------------------|-------------------|-------------------|
---------------------|-------------------|-------------------|
---------------------|-------------------|-------------------|


  W                   W                   W                   W                 
-------------------|-------------------|-------------------|-------------------|
-------------------|-------------------|-------------------|-------------------|
-------------------|-------------------|-------------------|-------------------|
-------------------|-------------------|-------------------|-------------------|
-------------------|-------------------|-------------------|-------------------|
-------------------|-------------------|-------------------|-------------------|


                      Pre-Chorus                                                
  W                   W                   W                   W                 
-------------------|-------------------|-------------------|-------------------|
-------------------|-------------------|-------------------|-------------------|
-------------------|-------------------|-------------------|-------------------|
-------------------|-------------------|-------------------|-------------------|
-------------------|-------------------|-------------------|-------------------|
-------------------|-------------------|-------------------|-------------------|


  Chorus                                                                        
  W                   W                   W                   W                 
-------------------|-------------------|-------------------|-------------------|
-------------------|-------------------|-------------------|-------------------|
-------------------|-------------------|-------------------|-------------------|
-------------------|-------------------|-------------------|-------------------|
-------------------|-------------------|-------------------|-------------------|
-------------------|-------------------|-------------------|-------------------|


  W                   W                   W                   W                 
-------------------|-------------------|-------------------|-------------------|
-------------------|-------------------|-------------------|-------------------|
-------------------|-------------------|-------------------|-------------------|
-------------------|-------------------|-------------------|-------------------|
-------------------|-------------------|-------------------|-------------------|
-------------------|-------------------|-------------------|-------------------|


  Outro Chorus                                                                  
  W                   W                   W                   W                 
-------------------|-------------------|-------------------|-------------------|
-------------------|-------------------|-------------------|-------------------|
-------------------|-------------------|-------------------|-------------------|
-------------------|-------------------|-------------------|-------------------|
-------------------|-------------------|-------------------|-------------------|
-------------------|-------------------|-------------------|-------------------|


                                                              Outro             
  W                   W                   W                   W                 
-------------------|-------------------|-------------------|-------------------|
-------------------|-------------------|-------------------|-------------------|
-------------------|-------------------|-------------------|-------------------|
-------------------|-------------------|-------------------|-------------------|
-------------------|-------------------|-------------------|-------------------|
-------------------|-------------------|-------------------|-------------------|


  W                   W                  
-------------------|-------------------||
-------------------|-------------------||
-------------------|-------------------||
-------------------|-------------------||
-------------------|-------------------||
-------------------|-------------------||




Keyboard #2:

David Hawkins


           Intro                                                       
     S     W                    W                    W                 
E||----|--15----------------|--14----------------|--10----------------|
B||----|---8----------------|---7----------------|--------------------|
G||----|--------------------|--------------------|---7----------------|
D||----|---5----------------|---4----------------|--------------------|
A||----|--------------------|--------------------|---5----------------|
E||----|--------------------|--------------------|--------------------|


   W                    W                    W                 
--12----------------|--15----------------|--14----------------|
--------------------|---8----------------|---7----------------|
---9----------------|--------------------|--------------------|
--------------------|---5----------------|---4----------------|
---7----------------|--------------------|--------------------|
--------------------|--------------------|--------------------|


                                            Riff A            
   W                    W                   W                 
--10----------------|--12----------------|-------------------|
--------------------|--------------------|-------------------|
---7----------------|---9----------------|-------------------|
--------------------|--------------------|-------------------|
---5----------------|---7----------------|-------------------|
--------------------|--------------------|-------------------|


  W                   W                   W                   W                 
-------------------|-------------------|-------------------|-------------------|
-------------------|-------------------|-------------------|-------------------|
-------------------|-------------------|-------------------|-------------------|
-------------------|-------------------|-------------------|-------------------|
-------------------|-------------------|-------------------|-------------------|
-------------------|-------------------|-------------------|-------------------|


                                                              Verse Riff        
  W                   W                   W                   W                 
-------------------|-------------------|-------------------|-------------------|
-------------------|-------------------|-------------------|-------------------|
-------------------|-------------------|-------------------|-------------------|
-------------------|-------------------|-------------------|-------------------|
-------------------|-------------------|-------------------|-------------------|
-------------------|-------------------|-------------------|-------------------|


  W                   W                   W                   W                 
-------------------|-------------------|-------------------|-------------------|
-------------------|-------------------|-------------------|-------------------|
-------------------|-------------------|-------------------|-------------------|
-------------------|-------------------|-------------------|-------------------|
-------------------|-------------------|-------------------|-------------------|
-------------------|-------------------|-------------------|-------------------|


  W                   W                   W                 
-------------------|-------------------|-------------------|
-------------------|-------------------|-------------------|
-------------------|-------------------|-------------------|
-------------------|-------------------|-------------------|
-------------------|-------------------|-------------------|
-------------------|-------------------|-------------------|


   W                    W                    W                 
--15----------------|--14----------------|--10----------------|
---8----------------|---7----------------|--------------------|
--------------------|--------------------|---7----------------|
---5----------------|---4----------------|--------------------|
--------------------|--------------------|---5----------------|
--------------------|--------------------|--------------------|


   W                    W                    W                 
--12----------------|--15----------------|--14----------------|
--------------------|---8----------------|---7----------------|
---9----------------|--------------------|--------------------|
--------------------|---5----------------|---4----------------|
---7----------------|--------------------|--------------------|
--------------------|--------------------|--------------------|


                                             Pre-Chorus        
   W                    W                    W                 
--10----------------|--12----------------|--12----------------|
--------------------|--------------------|--------------------|
---7----------------|---9----------------|---9----------------|
--------------------|--------------------|--------------------|
---5----------------|---7----------------|---7----------------|
--------------------|--------------------|--------------------|


                                            Chorus            
   W                    W                   W                 
--10----------------|---L----------------|-------------------|
--------------------|--------------------|-------------------|
---7----------------|---L----------------|-------------------|
--------------------|--------------------|-------------------|
---5----------------|---L----------------|-------------------|
--------------------|--------------------|-------------------|


  W                   W                   W                   W                 
-------------------|-------------------|-------------------|-------------------|
-------------------|-------------------|-------------------|-------------------|
-------------------|-------------------|-------------------|-------------------|
-------------------|-------------------|-------------------|-------------------|
-------------------|-------------------|-------------------|-------------------|
-------------------|-------------------|-------------------|-------------------|


                                                              Riff A            
  W                   W                   W                   W                 
-------------------|-------------------|-------------------|-------------------|
-------------------|-------------------|-------------------|-------------------|
-------------------|-------------------|-------------------|-------------------|
-------------------|-------------------|-------------------|-------------------|
-------------------|-------------------|-------------------|-------------------|
-------------------|-------------------|-------------------|-------------------|


                                                              Verse Riff        
  W                   W                   W                   W                 
-------------------|-------------------|-------------------|-------------------|
-------------------|-------------------|-------------------|-------------------|
-------------------|-------------------|-------------------|-------------------|
-------------------|-------------------|-------------------|-------------------|
-------------------|-------------------|-------------------|-------------------|
-------------------|-------------------|-------------------|-------------------|


  W                   W                   W                   W                 
-------------------|-------------------|-------------------|-------------------|
-------------------|-------------------|-------------------|-------------------|
-------------------|-------------------|-------------------|-------------------|
-------------------|-------------------|-------------------|-------------------|
-------------------|-------------------|-------------------|-------------------|
-------------------|-------------------|-------------------|-------------------|


  W                   W                   W                 
-------------------|-------------------|-------------------|
-------------------|-------------------|-------------------|
-------------------|-------------------|-------------------|
-------------------|-------------------|-------------------|
-------------------|-------------------|-------------------|
-------------------|-------------------|-------------------|


   W                    W                    W                 
--15----------------|--14----------------|--10----------------|
---8----------------|---7----------------|--------------------|
--------------------|--------------------|---7----------------|
---5----------------|---4----------------|--------------------|
--------------------|--------------------|---5----------------|
--------------------|--------------------|--------------------|


   W                    W                    W                 
--12----------------|--15----------------|--14----------------|
--------------------|---8----------------|---7----------------|
---9----------------|--------------------|--------------------|
--------------------|---5----------------|---4----------------|
---7----------------|--------------------|--------------------|
--------------------|--------------------|--------------------|


                                             Pre-Chorus        
   W                    W                    W                 
--10----------------|--12----------------|--12----------------|
--------------------|--------------------|--------------------|
---7----------------|---9----------------|---9----------------|
--------------------|--------------------|--------------------|
---5----------------|---7----------------|---7----------------|
--------------------|--------------------|--------------------|


                                            Chorus            
   W                    W                   W                 
--10----------------|---L----------------|-------------------|
--------------------|--------------------|-------------------|
---7----------------|---L----------------|-------------------|
--------------------|--------------------|-------------------|
---5----------------|---L----------------|-------------------|
--------------------|--------------------|-------------------|


  W                   W                   W                   W                 
-------------------|-------------------|-------------------|-------------------|
-------------------|-------------------|-------------------|-------------------|
-------------------|-------------------|-------------------|-------------------|
-------------------|-------------------|-------------------|-------------------|
-------------------|-------------------|-------------------|-------------------|
-------------------|-------------------|-------------------|-------------------|


                                                              Bridge            
  W                   W                   W                   W                 
-------------------|-------------------|-------------------|-------------------|
-------------------|-------------------|-------------------|-------------------|
-------------------|-------------------|-------------------|-------------------|
-------------------|-------------------|-------------------|-------------------|
-------------------|-------------------|-------------------|-------------------|
-------------------|-------------------|-------------------|-------------------|


  W                   W                   W                   W                 
-------------------|-------------------|-------------------|-------------------|
-------------------|-------------------|-------------------|-------------------|
-------------------|-------------------|-------------------|-------------------|
-------------------|-------------------|-------------------|-------------------|
-------------------|-------------------|-------------------|-------------------|
-------------------|-------------------|-------------------|-------------------|


  W                   W                   W                 
-------------------|-------------------|-------------------|
-------------------|-------------------|-------------------|
-------------------|-------------------|-------------------|
-------------------|-------------------|-------------------|
-------------------|-------------------|-------------------|
-------------------|-------------------|-------------------|


  Solo David Hawkins                                          
  W                     W                   W                 
---------------------|-------------------|-------------------|
---------------------|-------------------|-------------------|
---------------------|-------------------|-------------------|
---------------------|-------------------|-------------------|
---------------------|-------------------|-------------------|
---------------------|-------------------|-------------------|


  W                   W                   W                   W                 
-------------------|-------------------|-------------------|-------------------|
-------------------|-------------------|-------------------|-------------------|
-------------------|-------------------|-------------------|-------------------|
-------------------|-------------------|-------------------|-------------------|
-------------------|-------------------|-------------------|-------------------|
-------------------|-------------------|-------------------|-------------------|


                      Pre-Chorus                                                
  W                   W                   W                   W                 
-------------------|-------------------|-------------------|-------------------|
-------------------|-------------------|-------------------|-------------------|
-------------------|-------------------|-------------------|-------------------|
-------------------|-------------------|-------------------|-------------------|
-------------------|-------------------|-------------------|-------------------|
-------------------|-------------------|-------------------|-------------------|


  Chorus                                                                        
  W                   W                   W                   W                 
-------------------|-------------------|-------------------|-------------------|
-------------------|-------------------|-------------------|-------------------|
-------------------|-------------------|-------------------|-------------------|
-------------------|-------------------|-------------------|-------------------|
-------------------|-------------------|-------------------|-------------------|
-------------------|-------------------|-------------------|-------------------|


  W                   W                   W                   W                 
-------------------|-------------------|-------------------|-------------------|
-------------------|-------------------|-------------------|-------------------|
-------------------|-------------------|-------------------|-------------------|
-------------------|-------------------|-------------------|-------------------|
-------------------|-------------------|-------------------|-------------------|
-------------------|-------------------|-------------------|-------------------|


  Outro Chorus                                                                  
  W                   W                   W                   W                 
-------------------|-------------------|-------------------|-------------------|
-------------------|-------------------|-------------------|-------------------|
-------------------|-------------------|-------------------|-------------------|
-------------------|-------------------|-------------------|-------------------|
-------------------|-------------------|-------------------|-------------------|
-------------------|-------------------|-------------------|-------------------|


                                                              Outro             
  W                   W                   W                   W                 
-------------------|-------------------|-------------------|-------------------|
-------------------|-------------------|-------------------|-------------------|
-------------------|-------------------|-------------------|-------------------|
-------------------|-------------------|-------------------|-------------------|
-------------------|-------------------|-------------------|-------------------|
-------------------|-------------------|-------------------|-------------------|


  W                   W                  
-------------------|-------------------||
-------------------|-------------------||
-------------------|-------------------||
-------------------|-------------------||
-------------------|-------------------||
-------------------|-------------------||




Keyboard #3:

David Hawkins


          Intro                                                     
     S    W                   W                   W                 
E||----|-------------------|-------------------|-------------------|
B||----|-------------------|-------------------|-------------------|
G||----|-------------------|-------------------|-------------------|
D||----|--5----------------|--L----------------|--L----------------|
A||----|--7----------------|--L----------------|--L----------------|
E||----|-------------------|-------------------|-------------------|


  W                   W                   W                   W                 
-------------------|-------------------|-------------------|-------------------|
-------------------|-------------------|-------------------|-------------------|
-------------------|-------------------|-------------------|-------------------|
--5----------------|--5----------------|--L----------------|--L----------------|
--7----------------|--7----------------|--L----------------|--L----------------|
-------------------|-------------------|-------------------|-------------------|


                      Riff A                                                    
  W                   W                   W                   W                 
-------------------|-------------------|-------------------|-------------------|
-------------------|-------------------|-------------------|-------------------|
-------------------|--9----------------|--5----------------|--7----------------|
--5----------------|--5----------------|--2----------------|--4----------------|
--7----------------|--7----------------|--3----------------|--5----------------|
-------------------|-------------------|-------------------|-------------------|


  W                   W                   W                   W                 
-------------------|-------------------|-------------------|-------------------|
-------------------|-------------------|-------------------|-------------------|
--9----------------|--9----------------|--5----------------|--7----------------|
--5----------------|--5----------------|--2----------------|--4----------------|
--7----------------|--7----------------|--3----------------|--5----------------|
-------------------|-------------------|-------------------|-------------------|


                      Verse Riff                                                
  W                   W                   W                   W                 
-------------------|-------------------|-------------------|-------------------|
-------------------|-------------------|-------------------|-------------------|
--9----------------|-------------------|-------------------|-------------------|
--5----------------|-------------------|-------------------|-------------------|
--7----------------|-------------------|-------------------|-------------------|
-------------------|-------------------|-------------------|-------------------|


  W                   W                   W                   W                 
-------------------|-------------------|-------------------|-------------------|
-------------------|-------------------|-------------------|-------------------|
-------------------|-------------------|-------------------|-------------------|
-------------------|-------------------|-------------------|-------------------|
-------------------|-------------------|-------------------|-------------------|
-------------------|-------------------|-------------------|-------------------|


  W                   W                   W                   W                 
-------------------|-------------------|-------------------|-------------------|
-------------------|-------------------|-------------------|-------------------|
-------------------|-------------------|-------------------|-------------------|
-------------------|-------------------|-------------------|-------------------|
-------------------|-------------------|-------------------|-------------------|
-------------------|-------------------|-------------------|-------------------|


  W                   W                   W                   W                 
-------------------|-------------------|-------------------|-------------------|
-------------------|-------------------|-------------------|-------------------|
-------------------|-------------------|-------------------|-------------------|
-------------------|-------------------|-------------------|-------------------|
-------------------|-------------------|-------------------|-------------------|
-------------------|-------------------|-------------------|-------------------|


                      Pre-Chorus                                                
  W                   W                   W                   W                 
-------------------|-------------------|-------------------|-------------------|
-------------------|-------------------|-------------------|-------------------|
-------------------|-------------------|-------------------|-------------------|
-------------------|-------------------|-------------------|-------------------|
-------------------|-------------------|-------------------|-------------------|
-------------------|-------------------|-------------------|-------------------|


  Chorus                                                                        
  W                   W                   W                   W                 
-------------------|-------------------|-------------------|-------------------|
-------------------|-------------------|-------------------|-------------------|
--9----------------|--5----------------|--7----------------|--9----------------|
--5----------------|--2----------------|--4----------------|--5----------------|
--7----------------|--3----------------|--5----------------|--7----------------|
-------------------|-------------------|-------------------|-------------------|


  W                   W                   W                   W                 
-------------------|-------------------|-------------------|-------------------|
-------------------|-------------------|-------------------|-------------------|
--9----------------|--5----------------|--7----------------|--9----------------|
--5----------------|--2----------------|--4----------------|--5----------------|
--7----------------|--3----------------|--5----------------|--7----------------|
-------------------|-------------------|-------------------|-------------------|


  Riff A                                                                        
  W                   W                   W                   W                 
-------------------|-------------------|-------------------|-------------------|
-------------------|-------------------|-------------------|-------------------|
--9----------------|--5----------------|--7----------------|--9----------------|
--5----------------|--2----------------|--4----------------|--5----------------|
--7----------------|--3----------------|--5----------------|--7----------------|
-------------------|-------------------|-------------------|-------------------|


  Verse Riff                                                                    
  W                   W                   W                   W                 
-------------------|-------------------|-------------------|-------------------|
-------------------|-------------------|-------------------|-------------------|
-------------------|-------------------|-------------------|-------------------|
-------------------|-------------------|-------------------|-------------------|
-------------------|-------------------|-------------------|-------------------|
-------------------|-------------------|-------------------|-------------------|


  W                   W                   W                   W                 
-------------------|-------------------|-------------------|-------------------|
-------------------|-------------------|-------------------|-------------------|
-------------------|-------------------|-------------------|-------------------|
-------------------|-------------------|-------------------|-------------------|
-------------------|-------------------|-------------------|-------------------|
-------------------|-------------------|-------------------|-------------------|


  W                   W                   W                   W                 
-------------------|-------------------|-------------------|-------------------|
-------------------|-------------------|-------------------|-------------------|
-------------------|-------------------|-------------------|-------------------|
-------------------|-------------------|-------------------|-------------------|
-------------------|-------------------|-------------------|-------------------|
-------------------|-------------------|-------------------|-------------------|


  W                   W                   W                   W                 
-------------------|-------------------|-------------------|-------------------|
-------------------|-------------------|-------------------|-------------------|
-------------------|-------------------|-------------------|-------------------|
-------------------|-------------------|-------------------|-------------------|
-------------------|-------------------|-------------------|-------------------|
-------------------|-------------------|-------------------|-------------------|


  Pre-Chorus                                                  Chorus            
  W                   W                   W                   W                 
-------------------|-------------------|-------------------|-------------------|
-------------------|-------------------|-------------------|-------------------|
-------------------|-------------------|-------------------|--9----------------|
-------------------|-------------------|-------------------|--5----------------|
-------------------|-------------------|-------------------|--7----------------|
-------------------|-------------------|-------------------|-------------------|


  W                   W                   W                   W                 
-------------------|-------------------|-------------------|-------------------|
-------------------|-------------------|-------------------|-------------------|
--5----------------|--7----------------|--9----------------|--9----------------|
--2----------------|--4----------------|--5----------------|--5----------------|
--3----------------|--5----------------|--7----------------|--7----------------|
-------------------|-------------------|-------------------|-------------------|


                                                              Bridge            
  W                   W                   W                   W                 
-------------------|-------------------|-------------------|-------------------|
-------------------|-------------------|-------------------|-------------------|
--5----------------|--7----------------|--9----------------|--5----------------|
--2----------------|--4----------------|--5----------------|--2----------------|
--3----------------|--5----------------|--7----------------|--3----------------|
-------------------|-------------------|-------------------|-------------------|


  W                   W                   W                   W                 
-------------------|-------------------|-------------------|-------------------|
-------------------|-------------------|-------------------|-------------------|
--7----------------|--9----------------|--9----------------|--5----------------|
--4----------------|--5----------------|--5----------------|--2----------------|
--5----------------|--7----------------|--7----------------|--3----------------|
-------------------|-------------------|-------------------|-------------------|


  W                   W                   W                 
-------------------|-------------------|-------------------|
-------------------|-------------------|-------------------|
--7----------------|--9----------------|--9----------------|
--4----------------|--5----------------|--5----------------|
--5----------------|--7----------------|--7----------------|
-------------------|-------------------|-------------------|


  Solo David Hawkins                                          
  W                     W                   W                 
---------------------|-------------------|-------------------|
---------------------|-------------------|-------------------|
--5------------------|--7----------------|--9----------------|
--2------------------|--4----------------|--5----------------|
--3------------------|--5----------------|--7----------------|
---------------------|-------------------|-------------------|


  W                   W                   W                   W                 
-------------------|-------------------|-------------------|-------------------|
-------------------|-------------------|-------------------|-------------------|
--9----------------|--5----------------|--7----------------|--9----------------|
--5----------------|--2----------------|--4----------------|--5----------------|
--7----------------|--3----------------|--5----------------|--7----------------|
-------------------|-------------------|-------------------|-------------------|


                           Pre-Chorus                            
  E.   E.   Q.     Q       W                   W                 
------------------------|-------------------|-------------------|
------------------------|-------------------|-------------------|
--9---11---12-----------|-------------------|-------------------|
--5----7----9-----------|-------------------|-------------------|
--7----9---10-----------|-------------------|-------------------|
------------------------|-------------------|-------------------|


                      Chorus                                                    
  W                   W                   W                   W                 
-------------------|-------------------|-------------------|-------------------|
-------------------|-------------------|-------------------|-------------------|
-------------------|--9----------------|--5----------------|--7----------------|
-------------------|--5----------------|--2----------------|--4----------------|
-------------------|--7----------------|--3----------------|--5----------------|
-------------------|-------------------|-------------------|-------------------|


  W                   W                   W                   W                 
-------------------|-------------------|-------------------|-------------------|
-------------------|-------------------|-------------------|-------------------|
--9----------------|--9----------------|--5----------------|--7----------------|
--5----------------|--5----------------|--2----------------|--4----------------|
--7----------------|--7----------------|--3----------------|--5----------------|
-------------------|-------------------|-------------------|-------------------|


                      Outro Chorus                                              
  W                   W                   W                   W                 
-------------------|-------------------|-------------------|-------------------|
-------------------|-------------------|-------------------|-------------------|
--9----------------|--9----------------|--5----------------|--7----------------|
--5----------------|--5----------------|--2----------------|--4----------------|
--7----------------|--7----------------|--3----------------|--5----------------|
-------------------|-------------------|-------------------|-------------------|


  W                   W                   W                   W                 
-------------------|-------------------|-------------------|-------------------|
-------------------|-------------------|-------------------|-------------------|
--9----------------|--9----------------|--5----------------|--7----------------|
--5----------------|--5----------------|--2----------------|--4----------------|
--7----------------|--7----------------|--3----------------|--5----------------|
-------------------|-------------------|-------------------|-------------------|


  Outro                                                          
  W                   W                   E.  E.  E.  E.  Q      
-------------------|-------------------|-----------------------||
-------------------|-------------------|-----------------------||
--9----------------|--9----------------|-----------------------||
--5----------------|--5----------------|--5---5---5------------||
--7----------------|--7----------------|--7---7---7------------||
-------------------|-------------------|-----------------------||




Duration Legend
---------------
W - whole
H - half
Q - quarter
E - 8th
S - 16th
T - 32nd
X - 64th
. - note dotted
|-n-|  - n-tuplets


Tablature Legend
----------------
L - tied note
x - dead note
g - grace note
(n) - ghost note
> - accentuded note
NH - natural harmonic
AH - artificial harmonic
TH - tapped harmonic
SH - semi harmonic
PH - pitch harmonic
h - hammer on
p - pull off
b - bend
br - bendRelease
pb - preBend
pbr - preBendRelease
brb - bendReleaseBend
\n/ - tremolo bar dip
\n - tremolo bar dive
-/n - tremolo bar Release up
/n\ - tremolo bar inverted dip
/n - tremolo bar return
-\n - tremolo bar Release down
S - shift slide
s - legato slide
/ -  slide into from below or out of upwards
\ -  slide into from above or out of downwards
~ - vibrato
W - wide vibrato
tr - trill
TP - tremolo picking
T - tapping
S - slap
P - pop
< - fade in
^ - brush up
v - brush down
Добавлено: 06.10.2013
Другие материалы по этой песне:

Страница создана 29.06.2013
http://primanota.ru/steve-harris/us-against-the-world-chords.htm
Привет, Гость.
Предлагаем пройти революционный курс по гитаре.
Подарок от PrimaNota.Ru, забирай!