PrimaNota.ru - самый крупный в мире бесплатный архив песенных текстов, аккордов, табулатур и нот


Steve Hackett - Sierra Quemada - таба, видео

Регистрация Запомнить меня
Войти через:  Facebook Google Twitter Vk Yandex Mail.ru

Steve Hackett - Sierra Quemada - таба, видео

Печатать
Просмотров: 51
Steve Hackett - Sierra Quemada
==============================
This is the great guitar insturmental of the album 'Guitar Noir'. This
is my first guitar tab and im only 17 so there may be a few mistakes.
I think its pretty accurate though but please send any misstakes,
comments or seggestions to my e-mail if you find any. The layout is
done so there are 6 seperate parts, then after the parts is the
order in which to play them.
 

Tabbed by Ross Allen (ra_170188@hotmail.com)
 

Guitar Setup
============
Use a clean distortion sound, with hall reverb, about 650ms echo and
plenty of sustain. I use a ToneWorks AX1500G through a Marshall. 
 

Tab Explanation
===============
 
s     Slide
h     Hammer-on
p     Pull-off
()    Don't pluck note in brackets
b     Bend the note to the fret after the B
/     pre bend to fret before playing it
r     Release back to the fret after r
~     Vibrato
A.H.  Artificial Harmonic
F.B   Feedback
|     End of Part
T     Time in seconds (for Part 6)
 

Part 1:
 
e:-------------------------------------------------------------15b(17)~--|
B:-/17r(15)-13-15-/17r(15)------------/17r(15)-13-15-/17r(15)------------|
B:------------------------12-12-15-15~-----------------------12----------|
D:-----------------------------------------------------------------------|
A:-----------------------------------------------------------------------|
E:-----------------------------------------------------------------------|
 
Part 2:
 
e:------------------------------------------------------------15b(17)~---|
B:-13b(15)-15-15-13b(15)r13-12--------12-13b(15)-15-15r(13)-12-----------|
G:----------------------------12-9~-12-----------------------------------|
D:-----------------------------------------------------------------------|
A:-----------------------------------------------------------------------|
E:-----------------------------------------------------------------------|
 
Part 3:
 
e:-22b(24)r(22)-17-22-20-17~----------------------------------------------
B:--------------------------/15-15r(13)-10-10~-8b(10)r(8)-8-6-------------
G:-----------------------------------------------------------8b(10)~------
D:------------------------------------------------------------------------
A:------------------------------------------------------------------------
E:------------------------------------------------------------------------
 
                    repeat trill slow at end
e:-----------------------------------------------------------------------|
B:-5-6-8~-8b(10)r(8)-5h8p5h8p5h8...............5h8p5h8p5h8-3~------------|
G:-----------------------------------------------------------------------|
D:-----------------------------------------------------------------------|
A:-----------------------------------------------------------------------|
E:-----------------------------------------------------------------------|
 
Part 4:
  
   F.B ~9 seconds         F.B ~7 seconds
e:-----------------------------------------------------------------------|
B:-13~--------------------12~--------------(12)b(13)r(12)-10~-10s5-------|
G:-----------------------------------------------------------------------|
D:-----------------------------------------------------------------------|
A:-----------------------------------------------------------------------|
E:-----------------------------------------------------------------------|
 
Part 5:
 
e:-------------------------------------
B:-10b(13)~-12b(13)r(12)-10-12b(13)----
G:--------------------------------9-9~-
D:-------------------------------------
A:-------------------------------------
E:-------------------------------------
 
 
e:----------------7-8-10-12-13-10-12-15b(17)r(15)-
B:-------------8-10-------------------------------
G:------7-9-10------------------------------------
D:7-9-10------------------------------------------
A:------------------------------------------------
E:------------------------------------------------
 
 
e:---------------------------------7--------------------------------------
B:---------------8--10b(12)-10-8-10-----12-8-10-12-8-10-12~b(13)r(12)-10~-
G:---------7-9-10-7~----------------9-9~----------------------------------
D:---7-9-10---------------------------------------------------------------
A:-10---------------------------------------------------------------------
E:------------------------------------------------------------------------
 

e:-15b(17)-------------------------------------------------------
B:--------17-15-13-15-13-----------------------------------------
G:----------------------16-14------------------------------------
D:---------------------------12p10p9-10p9--10p9----10-10-7p5-7~--
A:---------------------------------------12----8~-7--7-----------
E:---------------------------------------------------------------
 

e:-------------------------------------------------------------
B:-8-6-5-6-5---5----------------------5-8s10-10b(12)r(10)p8----
G:------7---7-5-7-5-4-7-5-4-4-4p5-7-7b---------------------9---
D:-------------------------7-----------------------------------
A:-------------------------------------------------------------
E:-------------------------------------------------------------
 

e:-----------------------------------------------------------------------|
B:-12~-12h13-13b(15)-13b(15)r(13)p12-10~s3-------------------------------|
G:-----------------------------------------------------------------------|
D:-----------------------------------------------------------------------|
A:-----------------------------------------------------------------------|
E:-----------------------------------------------------------------------|
 
Part 6: 3:53 (Sustain all notes, e and G strings are seperate guitars)
 
T  0  2   5   8   10   16     18  21   29   32
e|-17~------------15~---------13~-12~--13~--10~---------------------------
B|------------------------------------------------------------------------
G|----9~------5-7~-----9-12~--14~-17~--14~--12~------(12)b(13)r(13)~-10~--
D|------------------------------------------------------------------------
A|------------------------------------------------------------------------
E|------------------------------------------------------------------------
 
4:35 (Sustain G string notes, seperate guitar for E string, not
sustained)
 
e|-----------------------------------------------------------------------|
B|-----------------------------------------------------------------------|
G|-9~--------------5-4--------4-5-7--------------------------------------|
D|-----------------------------------------------------------------------|
A|-----------------------------------------------------------------------|
E|----5s0-1~-----5s0-1~-----3--1--0~-----3-3-1~-----5s0-1~-----5s0-1~----|
 

Order of Licks
 
Part 1
Part 2
Part 1
Part 2
Break
Part 3
Part 1
Part 2
Part 4
Break
Part 5
Part 1
Part 2
Break
Part 6

     
Добавлено: 26.06.2013
Другие материалы по этой песне:

Страница создана 01.03.2012
http://primanota.ru/steve-hackett/sierra-quemada-chords.htm
Привет, Гость.
Предлагаем пройти революционный курс по гитаре.
Подарок от PrimaNota.Ru, забирай!