PrimaNota.ru - самый крупный в мире бесплатный архив песенных текстов, аккордов, табулатур и нот


Steve Angello - Payback - таба, видео

Регистрация Запомнить меня
Войти через:  Facebook Google Twitter Vk Yandex Mail.ru

Steve Angello - Payback - таба, видео

Печатать
Просмотров: 74
-------------------------------------------------------------------------------
                             PAYBACK - Steve Angello
-------------------------------------------------------------------------------
Tabbed by: hellsminion124
E-mail: 

Tuning: Standard

e|-------13----11h13p11--10------10------------------------------------------|
B|---------------------------13----------------------------------------------|
G|---------------------------------------------------------------------------|
D|------------------------------------13---13---13---13----------------------|
A|---------------------------------------------------------------------------|
E|---------------------------------------------------------------------------|

e|--13p10--10--10---11--10h11p10------10---15--------------------------------|
B|--------------------------------13-----------------------------------------|
G|---------------------------------------------12---12---12---12-------------|
D|---------------------------------------------------------------------------|
A|---------------------------------------------------------------------------|
E|---------------------------------------------------------------------------|
                       
e|--13p10--10--10------------------------------------------------------------| 
B|---------------------------------------------------------------------------|
G|---------------------------------------------------------------------------|  ...and repeat
D|---------------------------------------------------------------------------|  
A|---------------------------------------------------------------------------|
E|---------------------------------------------------------------------------|


************************************

| /   slide up
| \   slide down
| h   hammer-on
| p   pull-off
| ~   vibrato
| +   harmonic
| x   Mute note
| b   Bend
| pb  Pre-bend
| br  Bend release
| pbr Pre-bend release
| brb Bend release bend

************************************
Добавлено: 02.06.2016
Другие материалы по этой песне:
  • Аккорды и текст

Страница создана 02.06.2016
http://primanota.ru/steve-angello/payback-chords.htm
Привет, Гость.
Предлагаем пройти революционный курс по гитаре.
Подарок от PrimaNota.Ru, забирай!