PrimaNota.ru - самый крупный в мире бесплатный архив песенных текстов, аккордов, табулатур и нот


Steve And The Alcoholics - A Knights Tale - таба, видео

Регистрация Запомнить меня
Войти через:  Facebook Google Twitter Vk Yandex Mail.ru

Steve And The Alcoholics - A Knights Tale - таба, видео

Печатать
Просмотров: 139
Уроки эстрадного вокала в Санкт-Петербурге
Steve And The Alcoholics - A Knights Tale

Intro (Clean)
||-4~--|
||-4~--|
||-4~--|
||-5~--|
||-6~--|
||-6~--|
||-4~--|

||-444444444444-444444-666666-44444444444444-|
||-444444444444-444444-666666-44444444444444-|
||-444444444444-555555-777777-44444444444444-|
||-555555555555-666666-888888-55555555555555-|
||-666666666666-666666-888888-66666666666666-|
||-666666666666-444444-666666-66666666666666-|
||-444444444444---------------44444444444444-|
Pre Chorus (Distortion)
||---------|
||---------|
||---------|
||---------|
||-6---5---|
||-6---5---|
||-4---3---|

Chorus
||----------------------------------|
||----------------------------------|
||----------------------------------|
||----------6666666-8888888---------|
||--6666666-6666666-8888888-8888888-|
||--6666666-4444444-6666666-8888888-|
||--4444444-----------------6666666-|

||----------------------------------|
||----------------------------------|
||----------------------------------|
||----------6666666-888888888888888-|
||--6666666-6666666-888888888888888-|
||--6666666-4444444-666666666666666-|
||--4444444-------------------------|

||---------|
||---------|
||---------|
||---------|
||---------|
||-6\------|
||---------|

Outro

||-------------------------------------------|
||-------------------------------------------|
||-------------------------------------------|
||----6------8-6-5-----6---------------------|
||-6--6--6---8-6-5--6--6--6--8------8------8-|
||-6--4--6---6-4-3--6--4--6--8-8888-8-8888-8-|
||-4-----4----------4-----4--6-6666-6-6666-6-|

||------------------------------|
||------------------------------|
||------------------------------|
||----6------8-6-5-----6--------|
||-6--6--6---8-6-5--6--6--6--6--|
||-6--4--6---6-4-3--6--6--6--6\-|
||-4-----4----------4--4--3--4\-|

http://www.myspace.com/steveandthealcoholics
Добавлено: 08.07.2012
Другие материалы по этой песне:

Страница создана 07.07.2012
http://primanota.ru/steve-and-the-alcoholics/a-knights-tale-chords.htm
Привет, Гость.
Предлагаем пройти революционный курс по гитаре.
Подарок от PrimaNota.Ru, забирай!