PrimaNota.ru - самый крупный в мире бесплатный архив песенных текстов, аккордов, табулатур и нот


Steriogram - Fat & Proud - текст песни, таба, бас-таба, видео

Регистрация Запомнить меня
Войти через:  Facebook Google Twitter Vk Yandex Mail.ru

Steriogram - Fat & Proud - текст песни, таба, бас-таба, видео

Печатать
Просмотров: 171
Авторы: Tyson Kennedy, Jared Wrennall, Jake Adams, Brad Carter, Tim Youngson

Song: Fat And Proud
Artist: Steriogram
Album: Schmack!
Release Date: March 18, 2004
Label: Capitol/EMI Records
	Steriogram Is:
Vocals: Tyson Kennedy
Vocals: Brad Carter
Guitars: Tim Youngston
Guitars: Brad Carter
Bass Guitars: Jake Adams
Drums: Jared Wrennall
	Steriogram uses:
(Unknown)

Standard Tunung
e|--
b|--
g|--
d|--
a|--
e|--

Symols Used In This Song:


Tabbed By: Rhy Chermside
I\'m constantly improving and correcting my tabs, so if you have any suggestions email me.
	BeatOnTheBrat91@hotmail.com


Intro Lyrics:
For all the brothers this is how the big boys sound!

Guitar 1 (Lead) & 2 (Rhythm) Intro:
e|-------------------------------------------------|
b|-------------------------------------------------|
g|--------------5-2---------------------5-2--------|
d|--5-7--7-7-7--5-2--5-5-7--5-7--7-7-7--5-2--5-5-7-|
a|--5-7--7-7-7--3-0--5-5-7--5-7--7-7-7--3-0--5-5-7-|
e|--3-5--5-6-5-------3-3-5--3-5--5-6-5-------3-3-5-|

Guitar 1 & 2 Intro:
e|-------------------------------------------------|
b|-------------------------------------------------|
g|--------------5-2---------------------5-2--------|
d|--5-7--7-7-7--5-2--5-5-5--5-7--7-7-7--5-2--5-5-7-|
a|--5-7--7-7-7--3-0--5-5-5--5-7--7-7-7--3-0--5-5-7-|
e|--3-5--5-6-5-------3-3-3--3-5--5-6-5-------3-3-5-|




Verse Lyrics:
Some people may be sayin\' that I\'m overweight
But I think that my body is looking great
I used to diet, and diet, it don\'t change a thing

Guitar 1 Verse:
e|--------------------------------------------|
b|--------------------------------------------|
g|--------------------------------------------|
d|--------------------------------------------|
a|-------------------------------2/3h5^-3-5/1-|
e|--------------------------------------------|
  Everyone must accept that I won\'t be thin

Guitar 1 Verse:
e|----------------------------------------|
b|----------------------------------------|
g|----------------------------------------|
d|----------------------------------------|
a|--2/3--3----3p2h3--5--3----2/3-3--------|
e|----------------------------------------|
  Well it\'s the way I wanna be, \'Cause I\'m -

Verse Lyrics:
Someone everybody can see

Guitar 1 Verse:
e|----------------------------------------------------|
b|----------------------------------------------------|
g|----------------------------------------------------|
d|---------------------------------------3^-----------|
a|--2/3--3----3p2h3--5--3----2/3-3---2/3----3/7-7/1---|
e|----------------------------------------------------|
Well I always stabd out in a croud, I\'m the heaviest -

Verse Lyrics:
Boy you\'ve seen around



Guitars 1 & 2 Chorus:
e|-----------------------|
b|-----------------------|
g|------------------5--5-|
d|--5/7--7--7---7---5--5-|
a|--5/7--7--7---7---3--3-|
e|--3/5--5--5---5--------|
 \'Cause I\'m fat and proud 

Guitars 1 & 2 Chorus:
e|---------------------------------|
b|---------------------------------|
g|--7----7----7------7-------------|
d|--7----7----7------7------5----5-|
a|--5----5----5------5------5----5-|
e|--------------------------3----3-|
 And this is how the big boys sound

Guitars 1 & 2 Chorus:
e|-----------------------|
b|-----------------------|
g|------------------5--5-|
d|--5/7--7--7---7---5--5-|
a|--5/7--7--7---7---3--3-|
e|--3/5--5--5---5--------|
 \'Cause I\'m fat and proud 

Guitars 1 & 2 Chorus:
e|---------------------------------|
b|---------------------------------|
g|--7----7----7------7-------------|
d|--7----7----7------7------5----5-|
a|--5----5----5------5------5----5-|
e|--------------------------3----3-|
And I\'m sure you\'ve seen my butt around

Guitars 1 & 2 Chorus:
e|-----------------------|
b|-----------------------|
g|------------------5--5-|
d|--5/7--7--7---7---5--5-|
a|--5/7--7--7---7---3--3-|
e|--3/5--5--5---5--------|
 \'Cause I\'m fat and proud 

Guitars 1 & 2 Chorus:
e|---------------------------------|
b|---------------------------------|
g|--7----7----7------7-------------|
d|--7----7----7------7------5----5-|
a|--5----5----5------5------5----5-|
e|--------------------------3----3-|
And I\'m the heaviest boy you\'ve found

Guitars 1 & 2 Chorus:
e|-----------------------|
b|-----------------------|
g|------------------5--5-|
d|--5/7--7--7---7---5--5-|
a|--5/7--7--7---7---3--3-|
e|--3/5--5--5---5--------|
 \'Cause I\'m fat and proud 

Guitars 1 & 2 Chorus:
e|------------------------------------|
b|------------------------------------|
g|--7----7----7------7----------------|
d|--7----7----7------7------5-5-5-5-5-|
a|--5----5----5------5------5-5-5-5-5-|
e|--------------------------3-3-3-3-3-|
  And this is how the big boys sound




Guitar 1 & 2 Interlude to Verse:
e|-------------------------------------------------|
b|-------------------------------------------------|
g|--------------5-2---------------------5-2--------|
d|--5-7--7-7-7--5-2--5-7-7--5-7--7-7-7--5-2--5-5-7-|
a|--5-7--7-7-7--3-0--5-7-7--5-7--7-7-7--3-0--5-5-7-|
e|--3-5--5-6-5-------3-5-5--3-5--5-6-5-------3-3-5-|




Guitar 1 Verse:
e|----------------------------------------|
b|----------------------------------------|
g|----------------------------------------|
d|----------------------------------------|
a|--2/3--3----3p2h3--5--3----2/3-3--------|
e|----------------------------------------|
Would hate to be one of those skinny runts

Verse Lyrics:
You can\'t eat off your stomach or finish your lunch

Guitar 1 Verse:
e|----------------------------------------|
b|----------------------------------------|
g|----------------------------------------|
d|----------------------------------------|
a|--2/3--3----3p2h3--5--3----2/3-3--------|
e|----------------------------------------|
Well you got no rhythm; well you got no groove

Verse Lyrics:
You got no blubber that you can move

Guitar 1 Verse:
e|----------------------------------------|
b|----------------------------------------|
g|----------------------------------------|
d|----------------------------------------|
a|--2/3--3----3p2h3--5--3----2/3-3--------|
e|----------------------------------------|
Well your bones stick out and your nose sticks out

Verse Lyrics:
There are fourteen ribs on your cage that I can count

Guitar 1 Verse:
e|----------------------------------------------------|
b|----------------------------------------------------|
g|----------------------------------------------------|
d|---------------------------------------3^-----------|
a|--2/3--3----3p2h3--5--3----2/3-3---2/3----3/7-7/1---|
e|----------------------------------------------------|
People always sayin \"you don\'t eat enough\" 

Verse Lyrics:
I\'d snap you in half if i gave you a hug





Guitars 1 & 2 Chorus:
e|-----------------------|
b|-----------------------|
g|------------------5--5-|
d|--5/7--7--7---7---5--5-|
a|--5/7--7--7---7---3--3-|
e|--3/5--5--5---5--------|
 \'Cause I\'m fat and proud 

Guitars 1 & 2 Chorus:
e|---------------------------------|
b|---------------------------------|
g|--7----7----7------7-------------|
d|--7----7----7------7------5----5-|
a|--5----5----5------5------5----5-|
e|--------------------------3----3-|
 And this is how the big boys sound

Guitars 1 & 2 Chorus:
e|-----------------------|
b|-----------------------|
g|------------------5--5-|
d|--5/7--7--7---7---5--5-|
a|--5/7--7--7---7---3--3-|
e|--3/5--5--5---5--------|
 \'Cause I\'m fat and proud 

Guitars 1 & 2 Chorus:
e|---------------------------------|
b|---------------------------------|
g|--7----7----7------7-------------|
d|--7----7----7------7------5----5-|
a|--5----5----5------5------5----5-|
e|--------------------------3----3-|
And I\'m sure you\'ve seen my butt around

Guitars 1 & 2 Chorus:
e|-----------------------|
b|-----------------------|
g|------------------5--5-|
d|--5/7--7--7---7---5--5-|
a|--5/7--7--7---7---3--3-|
e|--3/5--5--5---5--------|
 \'Cause I\'m fat and proud 

Guitars 1 & 2 Chorus:
e|---------------------------------|
b|---------------------------------|
g|--7----7----7------7-------------|
d|--7----7----7------7------5----5-|
a|--5----5----5------5------5----5-|
e|--------------------------3----3-|
And I\'m the heaviest boy you\'ve found

Guitars 1 & 2 Chorus:
e|-----------------------|
b|-----------------------|
g|------------------5--5-|
d|--5/7--7--7---7---5--5-|
a|--5/7--7--7---7---3--3-|
e|--3/5--5--5---5--------|
 \'Cause I\'m fat and proud 

Guitars 1 & 2 Chorus:
e|-----------------------------------------------------|
b|-----------------------------------------------------|
g|--7----7----7------7---------------------------------|
d|--7----7----7------7------5-5-5-5-5-5/7-7-7--7/9-9-9-|
a|--5----5----5------5------5-5-5-5-5-5/7-7-7--7/9-9-9-|
e|--------------------------3-3-3-3-3-3/5-5-5--5/7-7-7-|
  And this is how the big boys sound



GUitar 1 Bridge:
e|----------------------------------------------------------|
b|----------------------------------------------------------|
g|----------------------------------------------------------|
d|--66666-66666-7-66666-66666-5-66666-66666-7-66666-66666-5-|
a|--66666-66666-7-66666-66666-5-66666-66666-7-66666-66666-5-|
e|----------------------------------------------------------|

Guitar 2 Bridge:
e|----------------------------------------------------------|
b|----------------------------------------------------------|
g|----------------------------------------------------------|
d|--77777-77777-8-77777-77777-6-77777-77777-9-77777-77777-6-|
a|--77777-77777-8-77777-77777-6-77777-77777-9-77777-77777-6-|
e|--55555-55555-6-55555-55555-4-55555-55555-6-55555-55555-4-|

Guitar 1 Bridge:
e|--------------------------------------------------------------|
b|--------------------------------------------------------------|
g|--------------------------------------------------------------|
d|--44444-44444-5-44444-44444-3-66666-66666-7-66666-66666-5-4-3-|
a|--44444-44444-5-44444-44444-3-66666-66666-7-66666-66666-5-4-3-|
e|--------------------------------------------------------------|

Guitar 2 Bridge:
e|--------------------------------------------------------------|
b|--------------------------------------------------------------|
g|--------------------------------------------------------------|
d|--55555-55555-6-55555-55555-4-77777-77777-9-77777-77777-6-5-4-|
a|--55555-55555-6-55555-55555-4-77777-77777-9-77777-77777-6-5-4-|
e|--33333-33333-4-33333-33333-2-55555-55555-6-55555-55555-4-3-2-|

Bridge Lyrics:
Well it doesn\'t really bother me much
\'Cause I know theres alot of me you can\'t touch

Guitar 1 Bridge:
e|------------------------------|
b|------------------------------|
g|------------------------------|
d|--44444-44444-5-44444-44444/1-|
a|--44444-44444-5-44444-44444/1-|
e|------------------------------|
The bigger the man is the bigger the tan

Bridge Lyrics:
Kickin\' it at the beach, lyin\' on the sand





Guitar 1 & 2 Verse:
e|--------------------------------------------|
b|--------------------------------------------|
g|---------------------5--2-------------------|
d|--5--7----7--7--7----5--2----5--5--7--------|
a|--5--7----7--7--7----3--0----5--5--7--------|
e|--3--5----5--5--5------------3--3--5--------|
For all you car boys workin on your suspension

Verse Lyrics:
Payin\' all that money for the up and down attention

Guitar 1 & 2 Verse:
e|--------------------------------------------|
b|--------------------------------------------|
g|---------------------5--2-------------------|
d|--5--7----7--7--7----5--2----5--5--7--------|
a|--5--7----7--7--7----3--0----5--5--7--------|
e|--3--5----5--5--5------------3--3--5--------|
    Just put me in  and take me out,  Trust me

Verse Lyrics:
You\'ll get that look from everyone about

Guitar 1 & 2 Verse:
e|--------------------------------------------|
b|--------------------------------------------|
g|---------------------5--2-------------------|
d|--5--7----7--7--7----5--2----5--5--5--------|
a|--5--7----7--7--7----3--0----5--5--5--------|
e|--3--5----5--5--5------------3--3--3--------|
As you see, I love my size            I just
                        (Love my size)

Verse Lyrics:
Wish you could see me through my eyes

Guitar 1 & 2 Verse:
e|--------------------------------------------|
b|--------------------------------------------|
g|---------------------5--2-------------------|
d|--5--7----7--7--7----5--2----5--5--7--------|
a|--5--7----7--7--7----3--0----5--5--7--------|
e|--3--5----5--5--5------------3--3--5--------|
\'Cause then you\'d realize that I hold the prize

Verse Lyrics:
For the biggest man you\'ve seen alive





Guitars 1 & 2 Chorus:
e|-----------------------|
b|-----------------------|
g|------------------5--5-|
d|--5/7--7--7---7---5--5-|
a|--5/7--7--7---7---3--3-|
e|--3/5--5--5---5--------|
 \'Cause I\'m fat and proud 

Guitars 1 & 2 Chorus:
e|---------------------------------|
b|---------------------------------|
g|--7----7----7------7-------------|
d|--7----7----7------7------5----5-|
a|--5----5----5------5------5----5-|
e|--------------------------3----3-|
 And this is how the big boys sound

Guitars 1 & 2 Chorus:
e|-----------------------|
b|-----------------------|
g|------------------5--5-|
d|--5/7--7--7---7---5--5-|
a|--5/7--7--7---7---3--3-|
e|--3/5--5--5---5--------|
 \'Cause I\'m fat and proud 

Guitars 1 & 2 Chorus:
e|---------------------------------|
b|---------------------------------|
g|--7----7----7------7-------------|
d|--7----7----7------7------5----5-|
a|--5----5----5------5------5----5-|
e|--------------------------3----3-|
And I\'m sure you\'ve seen my butt around

Guitars 1 & 2 Chorus:
e|-----------------------|
b|-----------------------|
g|------------------5--5-|
d|--5/7--7--7---7---5--5-|
a|--5/7--7--7---7---3--3-|
e|--3/5--5--5---5--------|
 \'Cause I\'m fat and proud 

Guitars 1 & 2 Chorus:
e|---------------------------------|
b|---------------------------------|
g|--7----7----7------7-------------|
d|--7----7----7------7------5----5-|
a|--5----5----5------5------5----5-|
e|--------------------------3----3-|
And this is how the big boys sound

Guitars 1 & 2 Chorus:
e|-----------------------|
b|-----------------------|
g|------------------5--5-|
d|--5/7--7--7---7---5--5-|
a|--5/7--7--7---7---3--3-|
e|--3/5--5--5---5--------|
 \'Cause I\'m fat and proud 

Guitars 1 & 2 Chorus:
e|------------------------------------|
b|------------------------------------|
g|--7----7----7------7----------------|
d|--7----7----7------7------5-5-5-5-5-|
a|--5----5----5------5------5-5-5-5-5-|
e|--------------------------3-3-3-3-3-|
  And I\'m the heaviest boy you\'ve found

Guitars 1 & 2 Chorus:
e|-----------------------|
b|-----------------------|
g|------------------5--5-|
d|--5/7--7--7---7---5--5-|
a|--5/7--7--7---7---3--3-|
e|--3/5--5--5---5--------|
 \'Cause I\'m fat and proud 
               Ra!       Ra!

Guitars 1 & 2 Chorus:
e|---------------------------------|
b|---------------------------------|
g|--7----7----7------7-------------|
d|--7----7----7------7------5----5-|
a|--5----5----5------5------5----5-|
e|--------------------------3----3-|
 And this is how the big boys sound

Guitars 1 & 2 Chorus:
e|-----------------------|
b|-----------------------|
g|------------------5--5-|
d|--5/7--7--7---7---5--5-|
a|--5/7--7--7---7---3--3-|
e|--3/5--5--5---5--------|
 \'Cause I\'m fat and proud 
               Ra!       Ra!

Guitars 1 & 2 Chorus:
e|---------------------------------|
b|---------------------------------|
g|--7----7----7------7-------------|
d|--7----7----7------7------5----5-|
a|--5----5----5------5------5----5-|
e|--------------------------3----3-|
And I\'m sure you\'ve seen my butt around

Guitars 1 & 2 Chorus:
e|-----------------------|
b|-----------------------|
g|------------------5--5-|
d|--5/7--7--7---7---5--5-|
a|--5/7--7--7---7---3--3-|
e|--3/5--5--5---5--------|
 \'Cause I\'m fat and proud 
               Ra!       Ra!

Guitars 1 & 2 Chorus:
e|---------------------------------|
b|---------------------------------|
g|--7----7----7------7-------------|
d|--7----7----7------7------5----5-|
a|--5----5----5------5------5----5-|
e|--------------------------3----3-|
And I\'m the heaviest boy you\'ve found

Guitars 1 & 2 Chorus:
e|-----------------------|
b|-----------------------|
g|------------------5--5-|
d|--5/7--7--7---7---5--5-|
a|--5/7--7--7---7---3--3-|
e|--3/5--5--5---5--------|
 \'Cause I\'m fat and proud 
               Ra!       Ra!

Guitars 1 & 2 Chorus:
e|-------------------------------------|
b|-------------------------------------|
g|--7----7----7------7-----------------|
d|--7----7----7------7------5-5-5-5-5~-|
a|--5----5----5------5------5-5-5-5-5~-|
e|--------------------------3-3-3-3-3~-|
  And this is how the big boys sound

Chorus Lyrics:
For all the brothers this is how the big boys sound!
Добавлено: 19.03.2012
Другие материалы по этой песне:
  • Аккорды и текст

Страница создана 10.03.2012
http://primanota.ru/steriogram/fat-and-proud-chords.htm
Привет, Гость.
Предлагаем пройти революционный курс по гитаре.
Подарок от PrimaNota.Ru, забирай!