PrimaNota.ru - самый крупный в мире бесплатный архив песенных текстов, аккордов, табулатур и нот


Stereophonics - Shes Alright - текст песни, таба, видео

Регистрация Запомнить меня
Войти через:  Facebook Google Twitter Vk Yandex Mail.ru

Stereophonics - Shes Alright - текст песни, таба, видео

Печатать
Просмотров: 137
From 'Keep Calm and Carry On' (2009)

Written by Kelly Jones

Kelly Jones - Vocals, Guitar
Rochard Jones - Bass
Javier Weyler - Drums
Adam Zindani - Guitar, Backing Vocals

verse 1 + chorus 1 

G, C, Bb, C 

All the chords are power chords and played on the low E string. 

Verse 2 

It's pretty much all slide guitar for kelly and rich plays 

g-----------------------------------------------------| 
D-----------------------------------------------------| 
A---------------------8h10-10-10-10-8-----------------| 
E--3-3-3----8-8-8------------------------8-8-8-8------| 

Here are the slide guitar riffs: 

this is before Kelly Starts Singing in the 2nd verse 
e---------| 
B---------| 
G-5///3---| x2 
D---------| 
A---------| 
E---------| 



e-------------| 
B-------------| 
G-0/////12----| 
D-0/////12----| 
A-------------| 
E-------------| 

These are the ones for after kelly Starts Singing 

e---------------///15--| 
B----------------------| 
G-5-3-0----------------| 
D-5-3-0----------------| 
A----------------------| 
E----------------------| 

e-/////15---| 
B-/////15---| 
G-----------| 
D-----------| 
A-----------| 
E-----------| 

e-------------//15----| 
B---------------------| 
D-5-3-0---------------| 
A---------------------| 
E---------------------| 

Chorus 2 

The bass plays the same thing as in the second verse 

Slide guitar plays 

e------3///15-15----| 
B------3///15-15----| 
G-0-----------------| 
D-0-----------------| 
A-------------------| 
E-------------------| 

Bridge 

The bass keeps playing the verse 2 riff and athe slide guitar plays 

e---------| 
B---------| 
G-5-3-0---| 
D-5-3-0---| 
A---------| 
E---------| x 1 

e--------------------------------------------------------| 
B-6/8-6----------6/8-6---------6/8-6---------------------| 
G---------5-3-0---------5-3-0------------5-3-0-0/5-------| 
D--------------------------------------------------------| 
A--------------------------------------------------------| 
E--------------------------------------------------------| 

Verse 3

kelly Plays a new riff here 

e--------------------------------------------| 
B--------------------------------------------| 
G--------------------------------------------| 
D--------------------------------------------| 
A--------------------------------------------| 
E-3-3-3-6p3--3-3-3-6p3--3-3-3-6p3--8b--------| 

Chorus 3

e-----------------------------------------------------------|
B-----------------------------------------------------------|
G-----------------------------------------------------------|
D-----------------------------------------------------------|
A-----------------------------------------------------------|
E-3-3-3-6p3-6/8-8-8-8b-3-3-3-6p3--3-3-3-6p3--3-3-3-6p3--8b--| 

Slide Guitar

e------3///15-15----| 
B------3///15-15----| 
G-0-----------------| 
D-0-----------------| 
A-------------------| 
E-------------------| 

Добавлено: 07.03.2012
Другие материалы по этой песне:
  • Аккорды и текст

Страница создана 04.03.2012
http://primanota.ru/stereophonics/shes-alright-chords.htm
Привет, Гость.
Предлагаем пройти революционный курс по гитаре.
Подарок от PrimaNota.Ru, забирай!