PrimaNota.ru - самый крупный в мире бесплатный архив песенных текстов, аккордов, табулатур и нот


Stereophonics - I Wanna Be Your Dog - таба, видео

Регистрация Запомнить меня
Войти через:  Facebook Google Twitter Vk Yandex Mail.ru

Stereophonics - I Wanna Be Your Dog - таба, видео

Печатать
Просмотров: 171
 This is a stunning cover of iggy and the stooges' classic - i wanna be your dog, 
by stereophonics and found on their 2005 single, superman EP

Verse
E|---------------------------------------------------------------------|
B|---------------------------------------------------------------------|
G|---------------------------------------------------------------------|
D|--12-12-12-12-11-11-11-11--9-9-9-9-9-9-9-9---------------------------|
A|--10-10-10-10-9--9--9--9---7-7-7-7-7-7-7-7---------------------------|
E|--10-10-10-10-9—-9—-9--9---7-7-7-7-7-7-7-7---------------------------|

  Chorus
E|----------------------------------------------------------------------|
B|----------------------------------------------------------------------|
G|----------------------------------------------------------------------|
D|--12-12-12-12-11-11-11-11—11-11-11-11-9-9-9-9-------------------------|
A|--10-10-10-10-9--9--9--9--9—-9--9--9--7-7-7-7-------------------------|
E|--10-10-10-10-9—-9—-9--9—-9—-9—-9--9--7-7-7-7-------------------- x 3-|

E|---------------------------------------------------------------------|
B|---------------------------------------------------------------------|
G|---------------------------------------------------------------------|
D|--12-12-12---9-9-9-9-9-7-7-7-4-4-4-4---------------------------------|
A|--10-10-10---7-7-7-7-7-5-5-5-2-2-2-2---------------------------------|
E|--10-10-10---7-7-7-7-7-5-5-5-2-2-2-2---------------------------------|

E|---------------------------------------------------------------------|
B|---------------------------------------------------------------------|
G|--3---------9--------------------------------------------------------|
D|--3---------9--------------------------------------------------------|
A|--5—x16-----7—x16----------------------------------------------------|
E|---------------------------------------------------------------------|

  Solo
E|----------------------------------------------------------------|
B|-----------------------------------------------------8b---------|
G|-------7-9-9b10-7---7----------------------------7-9----9-7-9---|
D|-9-7-9------------9--9-7h9p7h9p7h9p7h9p7-7--9-7-9---------------|
A|----------------------------------------------------------------|
E|----------------------------------------------------------------|

E|---------------|
B|---------------|
G|---------------|
D|-9p7h9p7-9-----|
A|-----------9-7-|
E|---------------|

this is my first tab any comments to willz_8@hotmail.co.uk cheers
be lucky ;)
Добавлено: 19.07.2012
Другие материалы по этой песне:
  • Аккорды и текст

Страница создана 19.07.2012
http://primanota.ru/stereophonics/i-wanna-be-your-dog-chords.htm
Привет, Гость.
Предлагаем пройти революционный курс по гитаре.
Подарок от PrimaNota.Ru, забирай!