PrimaNota.ru - самый крупный в мире бесплатный архив песенных текстов, аккордов, табулатур и нот


Stereophonics - Deadhead Live - таба, видео

Регистрация Запомнить меня
Войти через:  Facebook Google Twitter Vk Yandex Mail.ru

Stereophonics - Deadhead Live - таба, видео

Печатать
Просмотров: 105
Deadhead Live-Stereophonics

Band-Kelly Jones
     Richard Jones
     Javier Weyler

Chord Chart
   EADGBe
Dm:x5776x
Bb:688xxx
C :x355xx
A :x02220
G :320033
F :x3321x
Am:x02210

Intro

Quick Strum Pattern
   Dm   Bb   Dm   C
e-x-x--x-x--x-x--x-x--|
B-6-6--x-x--6-6--x-x--|
G-7-7--x-x--7-7--5-5--|
D-7-7--8-8--7-7--5-5--|
A-5-5--8-8--5-5--3-3--|
E-x-x--6-6--x-x--x-x--| x2

Verse
  Dm   Bb    Dm   C
e-x-x--x-x--x-x--x-x--|
B-6-6--x-x--6-6--x-x--|
G-7-7--x-x--7-7--5-5--|
D-7-7--8-8--7-7--5-5--|
A-5-5--8-8--5-5--3-3--|
E-x-x--6-6--x-x--x-x--| x4

Pre-Chorus
              A                          G
e-0-----0-----0-----0-----0-----0--3-3-3-3-3-3--|
B-2-----2-----2-----2-----2-----2--3-3-3-3-3-3--|
G-2-----2-----2-----2-----2-----2--0-0-0-0-0-0--|
D-2-----2-----2-----2-----2-----2--0-0-0-0-0-0--|
A---3p0---3p0---3p0---3p0---3p0----2-2-2-2-2-2--|
E----------------------------------3-3-3-3-3-3--| x1

Chorus
      Dm            C           F             G
e-x-x-x-x-x-x--x-x-x-x-x-x--x-x-x-x-x-x--3-3-3-3-3-3--|
B-6-6-6-6-6-6--x-x-x-x-x-x--1-1-1-1-1-1--3-3-3-3-3-3--|
G-7-7-7-7-7-7--5-5-5-5-5-5--2-2-2-2-2-2--0-0-0-0-0-0--|
D-7-7-7-7-7-7--5-5-5-5-5-5--3-3-3-3-3-3--0-0-0-0-0-0--|
A-5-5-5-5-5-5--3-3-3-3-3-3--3-3-3-3-3-3--2-2-2-2-2-2--|
E-x-x-x-x-x-x--x-x-x-x-x-x--x-x-x-x-x-x--3-3-3-3-3-3--| x2

Link to verse

As Intro

Pre-Solo


PM....................
e-x-x-x-x-x-x-x-x-x-x-x-x-x-x-x-x-x-x-x-x-x-x-x-x--|
B-6-6-6-6-6-6-6-6-6-6-6-6-6-6-6-6-6-6-6-6-6-6-6-6--|
G-7-7-7-7-7-7-7-7-7-7-7-7-7-7-7-7-7-7-7-7-7-7-7-7--|
D-7-7-7-7-7-7-7-7-7-7-7-7-7-7-7-7-7-7-7-7-7-7-7-7--|
A-5-5-5-5-5-5-5-5-5-5-5-5-5-5-5-5-5-5-5-5-5-5-5-5--|
E-x-x-x-x-x-x-x-x-x-x-x-x-x-x-x-x-x-x-x-x-x-x-x-x--|

(Half of this is palm muted then it's not)

Solo

e-----------------------------------------------|
B-----10-10-8-6h8---------10-10-8-6h8-10p8------|
G-7-7-------------7---7-7--------------------7--|
D-----------------------------------------------|
A-----------------------------------------------|
E-----------------------------------------------| x2

Outro

e-x-x-x-x-x-x--x-x-x-x-x-x--0-0-0-0-0-0--3-3-3-3-3-3--|
B-6-6-6-6-6-6--x-x-x-x-x-x--1-1-1-1-1-1--3-3-3-3-3-3--|
G-7-7-7-7-7-7--5-5-5-5-5-5--2-2-2-2-2-2--0-0-0-0-0-0--|
D-7-7-7-7-7-7--5-5-5-5-5-5--2-2-2-2-2-2--0-0-0-0-0-0--|
A-5-5-5-5-5-5--3-3-3-3-3-3--0-0-0-0-0-0--2-2-2-2-2-2--|
E-x-x-x-x-x-x--x-x-x-x-x-x--x-x-x-x-x-x--3-3-3-3-3-3--| x8

Order

Intro
Verse
Pre-Chorus
Chorus
Link to verse
Verse
Pre-Chorus
Chorus
Pre-Solo
Solo
Chorus
Outro

I'd say this is an Intermediate because of the difficult strumming pattern and the solo is simple but quick.
Добавлено: 02.11.2013
Другие материалы по этой песне:
  • Аккорды и текст

Страница создана 02.11.2013
http://primanota.ru/stereophonics/deadhead-live-chords.htm
Привет, Гость.
Предлагаем пройти революционный курс по гитаре.
Подарок от PrimaNota.Ru, забирай!