PrimaNota.ru - самый крупный в мире бесплатный архив песенных текстов, аккордов, табулатур и нот


Stereophonics - Deadhead - текст песни, таба, видео

Регистрация Запомнить меня
Войти через:  Facebook Google Twitter Vk Yandex Mail.ru

Stereophonics - Deadhead - текст песни, таба, видео

Печатать
Просмотров: 124
Авторы музыки: Kelly Jones
Авторы текста: Kelly Jones
this is the correct tab

e ---------------------------------------------------------------------------|
B ---------------10-----10-----8-----6-----5----3----------------------------|
G ------7--7-----------------------------------------------------------------|
D ---------------------------------------------------------------------------|
A ---------------------------------------------------------------------------|
E ---------------------------------------------------------------------------|

e --------------------------------------------------------------------------|
B----------------10-----10------8-----6-----8-----6-------------------------|
G-----7--7------------------------------------------------7-----------------|
D---------------------------------------------------------------------------|
A---------------------------------------------------------------------------|
E---------------------------------------------------------------------------|

e ---------------------------------------------------------------------------|
B----------------10-----10------8-----6-----8-----6-------8-------S10--------|
G-----7--7-------------------------------------------------------------------|
D----------------------------------------------------------------------------|
A----------------------------------------------------------------------------|
E----------------------------------------------------------------------------|

e --------------------------------------------------------------------------|
B --10-----8------6-------3-------------------------------------------------|
G --------------------------------------------------------------------------|
D --------------------------------------------------------------------------|
A --------------------------------------------------------------------------|
E --------------------------------------------------------------------------|

GREAT TUNE, LET ME KNOW WHAT YOU THINK, MY FIRST TAB, PRETTY SURE ITS CORRECT!
Добавлено: 07.09.2013
Другие материалы по этой песне:
  • Аккорды и текст

Страница создана 31.03.2012
http://primanota.ru/stereophonics/deadhead-chords.htm
Привет, Гость.
Предлагаем пройти революционный курс по гитаре.
Подарок от PrimaNota.Ru, забирай!