PrimaNota.ru - самый крупный в мире бесплатный архив песенных текстов, аккордов, табулатур и нот


Stereophonics - Brother - текст песни, таба, видео

Регистрация Запомнить меня
Войти через:  Facebook Google Twitter Vk Yandex Mail.ru

Stereophonics - Brother - текст песни, таба, видео

Печатать
Просмотров: 108
Авторы музыки: Kelly Jones
Авторы текста: Kelly Jones
Brother-Stereophonics

Band-Kelly Jones-Vocals, Guitars.
     Richard Jones-Bass.
     Javier Weyler-Drums.

Intro/Verse
(Distortion)

e-------------------------|
B-------------------------|
G-------------------------|
D-------------------------|
A-------------------------|
E-5-7-7-x-7--7-x-7-7-7-7--| x12

Verse Part 2
(Dist)

e----------------------|
B----------------------|
G----------------------|
D----------------------|
A-5-7-7-x-7-x-7-7-7-7--|
E----------------------| x2

e-----------------------------------|
B-----------------------------------|
G-----------------------------------|
D-7-7-7-7-7-7-7-7--6-6-6-6-6-6-6-6--|
A-5-5-5-5-5-5-5-5--4-4-4-4-4-4-4-4--|
E-----------------------------------| x1

Chorus

e-3-3-3-3-3-------0-0-0-0-0-0-0-0--|
B-3-3-3-3-3--3-3--0-0-0-0-0-0-0-0--|
G-0-0-0-0-0--2-2--1-1-1-1-1-1-1-1--|
D-0-0-0-0-0--0-0--2-2-2-2-2-2-2-2--|
A-2-2-2-2-2--x-x--2-2-2-2-2-2-2-2--|
E-3-3-3-3-3--2-2--0-0-0-0-0-0-0-0--| x4

Bridge

e----------------------------------------|
B----------------------------------------|
G----------------------------------------|
D----------------------------------------|
A--------4-5-5--5-7-7--9-10--9h10p9------|
E-5-7-7------------------------------10--| x2

Thats it You can Figure out the order!
Добавлено: 29.07.2013
Другие материалы по этой песне:
  • Аккорды и текст

Страница создана 29.07.2013
http://primanota.ru/stereophonics/brother-chords.htm
Привет, Гость.
Предлагаем пройти революционный курс по гитаре.
Подарок от PrimaNota.Ru, забирай!